• Song:

    Hey Joe (Solo)

  • Artist:

    Jimi Hendrix

Im 11.This song is 98% right!
I hope you like it!
()=bend up
[]=bend down
*=let ring
**=vibrato
When you see this (15){15}on the tab it means bend up and down,but PLUCK on the bend up and the bend down.


 |     Solo                                                                                                     |
e|--------------------------------------------------------------------------------------------------------------|
b|--(15){15}--12-------------(15){15}-12---------------------------------------------(15)(15)--15-12------------|
g|---------------(14)-12-----------------(14)-12-14-12-14-----12-14-12---------12--------------------14-12-14-12|
d|-----------------------14-------------------------------14-------------12-14----14----------------------------|
a|---------------------------------------------------------------------13---------------------------------------|
E|--------------------------------------------------------------------------------------------------------------|

 | solo cont.                                                       |
e|----------------------12-(15)-15-12-------------------------------|
b|------------------------------------------------------------------|
g|--14-12------------12---------------14-12-14------------*12*------|
d|--------14-14---14---------------------------14----12-14-----14---|
a|------------------------------------------------13----------------|
E|------------------------------------------------------------------|
Show more