• Song:

    Hey Joe (good Tab)

  • Artist:

    Jimi Hendrix

"Hey Jo" - Jimi Hendrix
Tabbed by damion eltgroth
AIM: dazedguitar42o
INTRO:                                             
e|---0---0---------------0---0---0---0---0----------------------|
B|--/5---3---------------0---0---0---0---0----------------------|
G|-----------42-0--------1---4---4---3---1----------7-----7-----|
D|-----------------0h2---2---5---5---4---2------7h9-7-7h9-7--9--|
A|-----------------------2---5---5---4---2------7-----7------7--|
E|-----------------------------0---0---0------------------------|

verse x8
e|----------------|----------------|----------------|---------------|
B|----------------|----------------|----------------|---------------|
G|----------------|--4-------------|----------------|--6------------|
D|--5----------5--|--5-------------|--7----------7--|--7------------|
A|--3-----5/7-----|--5----------5--|--5-----7/9-----|--7----------7-|
E|----------------|--3-----5/7-----|----------------|--5-----7/9----|

               
e|----------------|----------------|----------------|---------------|
B|----------------|----------------|----------------|---------------|
G|----------------|----------------|----------------|--7h9---7------|
D|--9-----9----9--|--------5-------|------9----9----|-----------9---|
A|--7-----7----7--|----5-----7-----|-7----7----7----|---------------|
E|----------------|--7---7---------|----------------|---------------|

verse 2 x8
e|----------------|----------------|----------------|---------------|
B|--5----5h6p5----|----------------|--7----7h8p7----|---------------|
G|--5----------5--|--4----4h5p4----|--7----------7--|--6----6h7p6---|
D|--5-------------|--5----------5--|--7-------------|--7----------7-|
A|--3-------------|--5-------------|--5-------------|--7------------|
E|----------------|--3-------------|----------------|--5------------|

               
e|----------------|----------------|----------------|---------------|
B|----------------|----------------|----------------|---------------|
G|----------------|----------------|----------------|--7h9---7------|
D|--9-----9----9--|--------5-------|------9----9----|-----------9---|
A|--7-----7----7--|----5-----7-----|--7---7----7----|---------------|
E|----------------|--7---7---------|----------------|---------------|

solo
e|--12----------12---------------------------------------------------|
B|--15[17]---------[17][15]-12-------------12------------------------|
G|-----------------------------14[16]---------[16][14]--12-----------|
D|-------------------------------------------------------------------|
A|-------------------------------------------------------------------|
E|-------------------------------------------------------------------|

               
e|--12----------12---------------------------------------------------|
B|--15[17]---------[17][15]-12-------------12------------------------|
G|-----------------------------14[16]---------[16][14]--12-14-12-----|
D|---------------------------------------------------------------14-|
A|-------------------------------------------------------------------|
E|-------------------------------------------------------------------|

                                                 .
e|-----------------------------------------------12----------12------|
B|--12----12---------------------12-12----------15[17]------15[17]--|
G|--12----12---------------------12-12------------------------------|
D|-----14-------------------12-14-------14--------------------------|
A|----------------------/14------------------------------------------|
E|-------------------------------------------------------------------|


e|--12--12--12-------------------------------------------|
B|--12--15--12-----------12-15-12------------------------|
G|-------------14[16]---------------14--------14-12-----|
D|-------------------------------------12-14-------------|
A|-------------------------------------------------------|
E|-------------------------------------------------------|


e|--------------12-15[17]------12--------------12--------------------|
B|-----------12-----------------------------15----15-----------------|
G|-14[16]-------------------------14[16]-------------[16][14]-12-----|
D|-------------------------------------------------------------------|
A|-------------------------------------------------------------------|
E|-------------------------------------------------------------------|


e|--------------------------------------|
B|-----------------------12-------------|
G|-----------------------12-------------|
D|---14-----------12-14-------14------|
A|-------------/14----------------------|
E|--------------------------------------|

bridge                                                 
e|-----------------------------------------------------|
B|-----------------------------------------------------|
G|-----------------------------------------------------|
D|----------------------------------9------9------9----|
A|--3---------2-3-4-5---------4-5-6-7------7------7----|
E|----0-1-2-3---------2-3-4-5--------------------------|
Show more