• Song:

    Izabella

  • Artist:

    Jimi Hendrix

  • Album:

    Experience Hendrix Box ...

Intro:
    4x
-||---------------------||-------------------||---------
-||-10--------10-10--10-||---12--10(11)------||---------
-||-11--------10-10--11-||---12--10(11)------||---------
-||-12--------10-10--12-||---12--------12-10-||---3-4-5-
-||---------------------||-------------------||-5-------
-||----10--13-----------||-10----------------||---------

Verse:

------------------------------------------------
------------------------------------------------
-----------3(4)---------------------------------
-5p3h5p3h5------5p3h5-----5--5p3---5p3----5p3---
---------------------------------5-----5------5-
----------------------3-------------------------

---------------------------------------------------------
--------------8(9)---------------------------------------
--------------8(9)---------------------------------------
-10p8h10p8h10------10p8h10----10-10p8----10p8----10p8----
--------------------------------------10------10------10-
---------------------------8-----------------------------

----------------------------------
----------------------------------
-10-10-10-10-10----10-10-10-10-10-
----------------------------------
--8--8--8--8--8-----8--8--8--8--8-
----------------------------------

------------------
------------------
------------------
---2-3-4----------
-3--------3-------
------------0-1-2-


Verse chords:
 G#9  C#9  F
--------------
-11---4-------
-10---3---10--
--9---2-------
-10---3----8--
--------------

Bridge:
------------------------------------------
------------------------------------------
------------------------------------------
-------3--5p3h5p3-----------3-3p2h3p2h3p2-
---2-5------------5-----2-5---------------
-3--------------------3-------------------

----------------------------------------------
----------------------------------------------
----------------------------------------------
--------8-10p8h10p8-------------8-8p7h8p7h8p7-
---7-10-------------10-----7-10---------------
-8-----------------------8--------------------

------------------------------------------
------------------------------------------
------------------------------------------
----------15-17p15h17p15--------------15~-
----14-17----------------17-----14-17-----
-15--------------------------15-----------


------------------------------------------------------
------------------------------------------------------
------------------------------------------------------
----------13-15p13h15p13h15p13---------8-10p8h10p8----
----12-15-------------------------7-10-------------10-
-13-----------------------------8---------------------

--------------------------
--------6~------6------6~-
----4-7-----4-7----4-7----
--5-----------------------
--------------------------
--------------------------

solo:
-----------------------------------------
-8(10)-(10)8p6-8(10)-8(10)~--8(10)8------
------------------------------------7----
--------------------------------------8~-
-----------------------------------------
-----------------------------------------

--------------------------------------------------
---0------6-8-8(10)-8(10)~~~~~~~-8(10)8-6---------
---0----7---------------------------------7-5-3~~-
-5------------------------------------------------
--------------------------------------------------
--------------------------------------------------

-------------------------------------------------------
-------------------------------------------------------
-3-5(7)5---3~---------3~----------------------5(7)~~~~-
---------7-----0--3/5-----5p3h5p3h5~-------------------
-------------------------------------5-31-------------
-------------------------------------------3-----------

----------------------------------------------------------------
------3-6p3------------3~----7----------------------------------
-5(7)-------5p3---5(7)-------8(10)~~----5(7)5p3---3h5-----------
----------------5-------------------------------5-----5---------
----------------------------------------------------------------
--------------------------------------------------------3~~~~~~-

-----------------------------------------------
-3-------------3---------------3---------------
-5(7)~~~~~~~5--5(7)~~~~~~~~5---5(7)~~~~~~~~~~5-
-----------------------------------------------
-----------------------------------------------
-----------------------------------------------


------------------------------3------------------3------------------------
-5------------------------6p3-------6p3--------3---6(8)~~--6p3------------
-7(9)7--7p6p5-3(4)----3-5-------5(7)-------5(7)----------------5p3----3---
-------------------5------------------------------------------------5---5-
--------------------------------------------------------------------------
--------------------------------------------------------------------------


-------------------3--------------6-------------
-----------------3---6p3------3---8(10)8-6---6~-
------------5(7)---------5(7)--------------7----
-3----------------------------------------------
---5---1----------------------------------------
---------3--------------------------------------


----------------
----------------
-/15~~~-17-15~-
----------------
----------------
----------------
  4x
||------------------------------------------------------------------------||
||----------------15(16)-----------17(18)-----------18~~--18p15-----------||
||----------------15(16)-----------17(18)-----------------------17-15-----||
||-17p15h17p15h17---------17p15h17---------17p15h17-------------------17~-||
||------------------------------------------------------------------------||
||------------------------------------------------------------------------||
   3x
||------------------||
||-------------18~~-||
||------------------||
||-17p15h17p15------||
||------------------||
||------------------||
Show more