• Song:

    Killing Floor

  • Artist:

    Jimi Hendrix

  • Album:

    Experience Hendrix Box ...

Artist: jimi hendrix
Song: killing floor
Tabber: matt607

-: Riff 1
E-|---------------------------------|
B-|---------------------------------|
G-|---------------------------------|
D-|---------------------------------|
A-|---------5-5-6-6-7-7-7-7-7-7-7-7-|
E-|-5-5-8-8-----------0-0-0-0-0-0-0-|


-: Riff 2
E-|---------------------------|
B-|-----------7-5-------------|
G-|-----------7-5-------------|
D-|-7-7-7-5-5-7-5-------------|
A-|-7-------------7-7-5-5-----|
E-|-5---------------------8-8-|


-: Riff 3
E-|----------------------------------------|
B-|----------------12-10-------------------|
G-|----------------12-10-------------------|
D-|-12-12-12-10-10-12-10-------------------|
A-|-12-------------------12-12-10-10-------|
E-|-10-------------------------------13-13-|


-: Riff 4
E-|----------------------------------------------------------------|
B-|----------------------------------------------------------------|
G-|--9-9-9-7-7------7-7-7-5-5--------------------------------------|
D-|--9---------9-9--7---------7-7----------------------------------|
A-|--7--------------5----------------------5-5-6-6-7-7-7-7-7-7-7-7-|
E-|--------------------------------5-5-8-8-----------0-0-0-0-0-0-0-|



(Goes with riff 2)
E-|---------------------------------|
B-|---------------------------------|
G-|---------------------------------|
D-|---------------------------------|
A-|-7-7-9-7-7-7-9-7-7-7-9-7-7-7-9-7-|
E-|-5-5-5-5-5-5-5-5-5-5-5-5-5-5-5-5-|


(Goes with riff 3)
E-|---------------------------------|
B-|---------------------------------|
G-|---------------------------------|
D-|-7-7-9-7-7-7-9-7-7-7-9-7-7-7-9-7-|
A-|-5-5-5-5-5-5-5-5-5-5-5-5-5-5-5-5-|
E-|---------------------------------|


(Goes with riff 4)
E-|---------------------------------------------------------------------|
B-|---------------------------------------------------------------------|
G-|---------------------------------------------------------------------|
D-|-9-9-11-9-9-9-11-9--7-7-9-7-7-7-9-7----------------------------------|
A-|-7-7-7--7-7-7-7--7--5-5-5-5-5-5-5-5----------5-5-6-6-7-7-7-7-7-7-7-7-|
E-|-------------------------------------5-5-8-8---------0-0-0-0-0-0-0-0-|


The order goes like this:

:beginning
riff 2
riff 2
riff 3
riff 2
riff 4
goto beginning
Show more