• Song:

    Litle Wing

  • Artist:

    Jimi Hendrix

Little Wing
Jimi Hendrix
Multiple albums
This song has a million covers and a million different tabs so ill post this and pray to hendrix (budum tsss) 
that 
its right
h=hammer on
p=pull off
/=slide (up or down)
*=harmonics
( )=optional notes

|x-12/-------------------------------------------------------3h5p3--3------------------------|
|x-12/-------------------------------------------------------3---------3------------------------|
|x-12/---------------------------------5--5----/-------0---------------------------------------|
|----------------x-x---------5---------5--5h7/------------------------------------------------|
|----------------x-x-------------5h7-----------------------------------------------------------|
|------------0---x-x--5h7---------------------------3------------------------------------------|
try to get that 3 ont eh 6th string with ur thumb but if u cant its alright
|3-----3--3--3--3------------------------------------------------------------------------------|
|3-----3--3--3--3--------------------------5-----5---------------------------------------------|
|4h5---5--4--5--4----------------5--5---5h7--5-------------------------------------------------|
|-----------------------5------------5--7--------------5h7---------5---------------------------|
|----------------------------5h7------------------------------5h7------------------------------|
|-------------------------5----------------------------------------------5h7/----0-------------|

|7-----------------------------------------------------------7h9--10--9---------7--------|
|8h10p8--------------------------------------------------7------7---7---10---7-------|
|------------7----------------7--7----------------------------------------------------------|
|-----------------------------7--7h9p7---------------9-----------------------------------|
|---------------7--7--10-----------------10--7-------------------------------------------|
|----------------------------------------------------7---------------------------------------|

|--------------------------------------------------------------------------------------------|
|--------------------------------------------------------------------------------------------|
|---------------------5--5-----5---5--------5--5--5------------------------------------------|
|9-----------8---7----7--7h9---7---5--5--5--5--7--5------------------------------------------|
|--9------8------7--------------------8--7---------------------------------------------------|
|-------6--------5-------------------------------------------5--7/---3-----------------------|
get that 3 with ur thumb too
|5/7--5--5/3--3--0--0--0--0--2--2--2--2-------------------------------(12*)------|
|3/5--3--3/1--1--1--1--1--1--3--3--3--3--3-----3--3--3--3--3----------(12*)------|
|x/x--x--x/x--x--2--2--2--2--2--2--2--2--2h4---2--2--0--0--0----------(12*)------|
|5/7--5--5/3--3--2--2--2--2--0--0--0--0--0-----0--0--0--2--2h4--------(12*)------|
|----------------3--3--3--3------------------------------------------------------|
|--------------------------------------------------------------------------------|

Verse 1 (All downstrokes)
E-                           		     G		     A-	                     	        E-
Well she’s walkin’,  through the clouds, with a circus mind, that twenty-one
B-				B-(flat)	     A-  C	    G	  F
Butterflies and zebras have ruined me       with fairy tales, that’s all she gives to me
C	D
	Ridin’ with the wind
Verse 2
E-				  G	      A-				          E-
When i’m sad, she comes to me, with clouds of smiles, she gives to be free
B-		        B-(flat)A-        C			   G		  F   C
It’s alright she said it’s alright,        take anything you want from me 
D
anything

*super duper hendrix solo, unbeknownst to me*
Show more