• Song:

    Little wing

  • Artist:

    Jimi Hendrix

  • Album:

    Experience Hendrix Box ...

Artist : Jimi Hendrix                     
Song title : Little Wing
Tuning : Eb Ab Db Gb Bb eb

This intro isn?t 100% like in the song, it?s almost the same though.
Note that i?m only 14 years old and I have been playing guitar for a year now.
Enjoy.




--x--12\-------------------------------------------------------
--x--12\------------------------------------------------------
--x-------------------------------5-7--------------------------
--------------xx--------5---------5-5--------------------------
--------------xx-----------5h7--------------------------------
-----------0--xx--5h7------------------------------------------

----------3h5p3 3-------------------------------------------
----------3----------------------------------------------------
----------4-----------4h5-5-4-5-4-------------------------
------5--------------------------------5------------------------
----------------------------------------------------------------
---3-----------------------------------------------------------

----------------------------------------------------------------
----------------------------------------------------------------
----------------------------------------------------------------
-------------5----7-5-----------------------------------------
-------5-7---7--------7--------------------------------------
----5---------------------5h7-7------------------------------

----------------------------------------------------------------
------8h10p8------------------------------------------------
------------------7---------------------------------------------
-------------------------------7-9-7---------------------------
---------------------7-7-10---------10-7--------------------
--0--------------------------------------------------------------

------9-10-9-------7----------------------------------------
------7-7---7--10--7----------------------------------------
----------------------------------------------------------------
----------------------------------------------------------------
----------------------------------------------------------------
--7------------------------------------------------------------




----------------------------------------------------------------
----------------------------------------------------------------
-7-----5--5-7-5-5------5-7-5-----------------------------
-9-----7--7-9-7-5-5-5-5-5-5----------------------------
---------------------8-7------------------------------------
----6----------------------------------------------------------

---------------5h7--5--3----3-----------------------------
---------------3h5--3--1----1----------------------------
---------------0--0--0--0----0----------------------------
-----------5--5h7---5--3---3-----------------------------
--------------------------------------------------------------
--5h7-3----------------------------------------------------

----------------------------------------------------------------
----------------------------------------------------------------
----------------------------------------------------------------
-------------5--------------------------------------------------
--------7------7--12-12-12-12----------------------------
--7-8----8-------10-10-10-10----------------------------

----------------------------------------------------------------
----------------------------------------------------------------
----------------------------------------------------------------
--7h9--7--------7--------------------------------------------
------------10-7-5-------------------------------------------
----------------------------------------------------------------

And that?s it. Hope you like it.
Thanks to Jimi Hendrix for writing this incredible song!
Show more