• Song:

    Little wing

  • Artist:

    Jimi Hendrix

  • Album:

    Experience Hendrix Box ...

Intro:
         
       |-x--12-|----x-x----------------------|
       |-x--12-|----x-x----------------------|
       |-x--12-|----x-x----------------5--5--|
       |-------|----x-x--------5-------5--7--|
       |-------|------------------5h7--------|
       |--x--12|--0------5h7-----------------|


       |-------3h5p3--3-----------------------|
       |-------3------------------------------| 
       |-------4---------4?4h5--5?4h5--4------|
       |----5-------------------------------5-|
       |--------------------------------------|
       |-3------------------------------------|

       |----------------------------------|
       |-------------5--------------------|
       |-------------5h7--5---------------|
       |-------5------------5h7--5--------|
       |---5-7----7--------------7-7------|
       |5-----------------------------5h7-|


       |-------------------------------------------|
       |----8h10--8--------------------------------|
       |------------------------7--7----7----------|
       |--9---------------------7?-7h9--7------7---|
       |--------------7--7--10-------------10--7---|
       |0------------------------------------------|


       |--------9--10--9------7--------------|
       |--------7--7---7--10--7--------------|
       |-----7------------7------7--7-----7--|
       |-----9-------------------9--9-----8--|
       |-------------------------------------|
       |--7--------------------------6-------|


       |---------------------------------------|
       |---------------------------------------|
       |----5--5--5--5--------5--5--5----------|
       |----7--9--7--5--5--5--5--7--5----------|
       |----------------8--7-------------------|
       |-5-------------------------------5h7---|


       |--------5/7--5--5/3--3--------|
       |--------3/5--3--3/1--1?-------|
       |--------0-0--0--0-0--0?-------|
       |-----5--5/7--5--5/3--3--------|
       |------------------------------|
       |--3-----------------1---------|


       |----------------------------------------|
       |----------------------------------------|
       |----------2------------------7----------|
       |------2----2-------------7-----7--------|
       |--0h3---3---3--------3/5---5-----5------|
       |----------------------------------------|


       |--------------------------------|
       |--------------------------------|
       |--7---7---7---------------------|
       |--7---7h9-7----7--7?-7---------|
       |---------------10-7--9---------|
       |--------------------------------|


  
       Chord progression / lyrics:

                   Em                  G              
       Well she's walkin' through the clouds,

               Am                        Em 
       with a circus mind that's running wild

       Bm                            Bb       Am             G
       Butterflies and zebras, and moonbeams, and fairy tales
  
       Fsus9                            C            D 
       That's all she ever thinks about running with the wind.
 
       When I'm sad she comes to me, 
       with a thousand smiles she gives to me free
       It's alright she says it's alright,
       take anything you want from me  
       Anything.
Show more