• Song:

    Little wing

  • Artist:

    Jimi Hendrix

  • Album:

    Experience Hendrix Box ...

Tuning : Eb, Bb, Gb, Db, Ab, Eb

To play the intro easier, I suggest following the chords
and just playing around it. 

Intro:

                   Em                     G
 
----12-----------------------------------------3h5p3-3--
----12------x-x--------------------------------3-----3--
--12---------x-x-------0-------5-5------------0----------
--12---------x-x-----------5---5-7-7--------------------
----12------x-x---0h2-----5h7---------------------------
----12---0-------------------------------2/3------------


                      Am

---------------------------------------------------------
---3----3--3---------------------5-----------------------
-5-4h5--5--4-5-4-------------5---5h7-5-------------------
-----------------5---------------------5h7-5-------------
-------------------------5-7---7-----------5h7-----------
-------------------3---5------------------------5h7-----


  Em
   
---------------------------------------------------------
-----8h10p8----------------------------------------------
-----7------7-----------7-7----7-7---7-------------------
---------------9---7----7-7h9--7-7---7-------------------
---------------7-7-10------------10--7-------------------
--0------------------------------------------------------


  Bm

------9--10--9-------7-----------------------------------
------7--7---7-7h10--7--7--------------------------------
----7----7--------------7--------7---7-------------------
----9-------------------9------------8-------------------
---------------------------------------------------------
--7------------------------0--6--------------------------


  Am

---------------------------------------------------------
-----5---------------------------------------------------
-----5------5--5--5---------5--5--5--x-------------------
-----7------9--7--5---5-5---5--7--5--x-------------------
--------h7------------8-7------------x-------------------
--5------------------------------------5h7--------------


 G        Asus2  Gsus2      Fsus2

---------5/7-----5--------53----------------------------
---------3/5-----3--------31-----1----------------------
-----0---5/7-----5--------0-------0----0----0------------
-----5---5/7-----5--------53----------x----x------------
---------------------------------------3----3------------
-2h3------------------0-------------1-----1-----1--------


 
  c6                     D

---------------------------------------------------------
--------1---3p1---------------------------7--------------
-----2----2-2----2----------------------7-7----7-7-------
-----2-----------x-----------7----7-----7-7h9--7-7--7--7-
-0h3-------------3------/5-----5--5-5---------------10-7-
---------------------------------------------------------


  D/F#

--------------------------12---------------
--------------------------12---------------
--7-----------------------------------------
--7-----------------------------------------
--9-----------------------12---------------
--------------------------12---------------


   Thats about it.  

   This is my first tab, but it should be alright. 
   If you want the finished version of little wing
   Ill tab it soon or send me an email.
    
     warria_tempest@hotmail.com   ( cheers =P )
Show more