• Song:

    Manic depression

  • Artist:

    Jimi Hendrix

  • Album:

    Are You Experienced ?

Jimi Hendrix
CD: Experience Hendrix: The Best of Jimi Hendrix
Song: Manic Depression

B - bend

intro
E--------------------------------------------------------------------------|------------| |
B--------------------------------------------------------------------------|------------| |
G--------------------------------------------------------------------------|------------|.|(repeat last bar 4x)
D---------5-6-7----7-5-7-5---7-5-7-5---7-5-7-5--7-5-7-5-----2--------------|---7-5-7-5--|.|
A---5-6-7--------0---------0---------0---------0--------0-4-----2-5--5-6-7-|--0---------| |
E-------------------------------------------------------------3------------|------------| |
                                                                            "but i just dont know...."


E----------------------------------------------------------------------------------------
B----------------------------------------------------------------------------------------
G----------------------------------------------------------------------------------------
D----------------------------------------------------------------------------------------
A--------2-----2--5---5---3-5-3-5-3----3-2-3-2-3-2-3-2----------------------------------
E--0--4-----3--------------------------------------------3-2-3-2-3-2-3-2-3-2-3-2-3-2-----
                                     "fingers.... fingers..."



E--------------------------------------------------------------------------------------------------
B--------------------------------------------------------------------------------------------------
G--------------------------------------------------------------------------------------------------
D---------------------------------------5-6-7-------7-5-7-5------7-5-7-5-----7-5-7-5----7-5-7-5----
A--------2---2--5-----5-6-7---------------------0-------------0-----------0-----------0------------
E----0-4---3---------------------------------------------------------------------------------------
"manic depression has captured my soul..."

Riff
E--------------------------------|--------------------------------|
B--------------------------------|-----5--------------5-----------|
G--------------------------------|-----7(b)9(b)-------7(b)9(b)----|
D--------------------------------|--------------------------------| repeat last bar twice
A-----------2-----2---5----5-6-7-|-0--------------0---------------| then repeat the whole thing
E---0---4------3-----------------|--------------------------------| but on teh second part end on teh seocnd 0
                          "cause'n pain...."

*note on the bends with the 9's dont hit the note again just bend it twice only hitting it once



E----------------------------------------------------------------------------------
B----------------------------------------------------------------------------------
G----------------------------------------------------------------------------------
D--------2-------------------------------------------------------------------------
A--0--4---------2--5---5---3-5-3-5-3----3-2-3-2-3-2-3-2----------------------------
E----------3----------------------------------------------3-2-3-2-3-2-3-2-3-2------
                    "music sweet music..."


E------------------------------------------------------------------
B------------------------------------------------------------------
G------------------------------------------------------------------
D--------2------------------------5-6-7---------------5-6-7--------
A--0--4-------2---5----5-6-7-----------------5-6-7-----------------
E----------3-------------------------------------------------------



then the solo comes here but i dont feel liek tabbin it all out



theres more, but its all there just figure out the order and youll be fine
Show more