• Song:

    Manic depression

  • Artist:

    Jimi Hendrix

  • Album:

    Are You Experienced ?

tabs.net]

Are You Experienced? 

E----------------------------------------------------------------------------------
B----------------------------------------------------------------------------------
G----------------------------------------------------------------------------------
D---------5-6-7----7-5-7-5---7-5-7-5---7-5-7-5--7-5-7-5---------------------7-5-7-5
A---5-6-7--------0---------0---------0---------0--------0-4-7--2-5--5-6-7--0-------
E-------------------------------------------------------------3--------------------

"Feeling sweet feeling, drops from 
my fingers...fingers... and also 
"Music Sweet Music 
I wish i could caress... caress..." 
 
Riff B
E------------------- -----------------------------------------------------
B------------------- ----------------------------------------------------------------
G------------------- ----------------------------------------------------------------
D------------------- ----------------------------------------------------------------
A--------2-----2--5- --5---3-5-3--5--3-2-3-2-3-2-3-2---------------------------------
E--0--4-----3------- --------------------------------3-2-3-2-3-2-3-2-----------------
Then in the second verse after riff b it goes...
E------------------------------------------------------------------------------------
B---5-----5------5-----------------------------------------------------------------
G---7b(9)-7b(9)--7b(9)--------------------------------------------------------------
D-0------------0-----------------------------------------------------------------
A----------------------------------------------------------------------------------
E----------------------------------------------------------------------------
Show more