----------------------------------------------------------------------------
			     Hurricane - Jimmy Needham
----------------------------------------------------------------------------
Tabbed by: David

Tuning: Standard

Intro
G|0--0-0----------------------|
D|--------0--0-0--2--2-2------|
A|------------------------3-3-|
E|----------------------------|

Verses Come in at I just wanted a safer place to hide
G|0--0-0----------------------|
D|--------0--0-0--2--2-2------|
A|------------------------3-3-|
E|----------------------------|
Chorus Come in at I need you like a Hurricane
G|0--0-0--------------------------0--0-0--------------------------|
D|--------0--0-0--2--2-2----- X3----------0--0-0--2--2-2----------|
A|------------------------3-3------------------------------3-3----|
E|----------------------------------------------------------------|
Verse 2 Come in at I am yours and you are mine
G|0--0-0-------------------------|
D|--------0--0-0--2--2-2---------|X3
A|------------------------3-3----|
E|-------------------------------|
Chorus Come in at I need you like a Hurricane
G|0--0-0--------------------------0--0-0-------------------------|
D|--------0--0-0--2--2-2----- X3----------0--0-0--2--2-2---------|
A|------------------------3-3------------------------------3-3---|
E|---------------------------------------------------------------|
Bridge Comes in at And its your eye in the storm
E|-------0-0-0----------------------------0-0-0------|
D|---------------0-0-0-2-2-2 X4----------------0-0-0-|
A|3-3-3----------------------------3-3-3-------------|
E|---------------------------------------------------|

Chorus Come in at I need you like a Hurricane
G|0--0-0--------------------------0--0-0--------------------------|
D|--------0--0-0-2--2-2-----X3----------0--0-0-2--2-2-------------|
A|------------------------3-3------------------------------3-3----|
E|----------------------------------------------------------------|
Show more