Take A Look Around Tab by Joe Walsh


-------------------------------------------------------------------------------
			     Take a look around - Joe Walsh
-------------------------------------------------------------------------------
Tabbed by: A 15 year old Joe Walsh fan

Tuning: Standard

You might want to play this song with a slide. It sounds alright without it though.

e|-------------------------------------------------------------------------|
B|-17b-13-13h15-17b-13---------------------------------15-17-15-17-15-17---|
G|---------------------15-5s7-9-7-5s7-9-7h9s7-17v-15-7---------------------|
D|-------------------------------------------------------------------------|
A|-------------------------------------------------------------------------|
E|-------------------------------------------------------------------------|

e|-------------------------------------------------------------------------|
B|-17b-15-17-18-15v-18-15s11-11h13-11-10-9-11-12-12-11-9h7-9---------------|
G|----------------------------------------------------------10-8-10-8-10---|
D|-------------------------------------------------------------------------|
A|-------------------------------------------------------------------------|
E|-------------------------------------------------------------------------|

e|---21-24-22-24b-22-24s22-21----------------------------------------------|
B|-------------------------------------------------------------------------|
G|-11----------------------------------------------------------------------|
D|-------------------------------------------------------------------------|
A}-------------------------------------------------------------------------|
E|-------------------------------------------------------------------------|



 s  slide up
 s  slide down
 h  hammer-on
 v  vibrato
 
(song was tabbed from the album - The best of Joe Walsh and The James Gang)
Show more