Love This Town Tab by Joel Plaskett



love this town                  (((((      ((((((((( (((((((((     
Joel Plaskett                   (((((      ((((((((( (((((((((
tabbed by (Lee) /dauphil9       (((((      (((((     (((((
played on an acoustic guitar    (((((      ((((((((( (((((((((
capo on 2nd fret                (((((      ((((((((( (((((((((
this is my first tab!!          (((((((((( (((((     (((((
                                (((((((((( ((((((((( (((((((((
main riff:                      (((((((((( ((((((((( (((((((((

   G    G9   G      G9    G    G9    G              D
e----------------------|--------------------------------|-
b--0-------------------|--0-------------1-0-------------|-
g----0-------------0---|----0---------------2-0-2---0-2-|-
d------0-2---0-0-2---2-|------0-2---0-2-----------------|-
a----------------------|--------------------------------|-
e--3-------------------|--3-----------------------------|-

 

   G     G9   G            C    G        D     G                    
 ------------------------------------------------|
 --0-----------------------------1-0---------0---|
 ----0-------------0-0h2p0-0---------2-0-2-----0-|
 ------0-2---0-0-2-------------------------------|
 ------------------------------------------------|
 --3---------------------------------------------|
  
  
Chorus:
  
  C       G       C       G    D    C    G



Between main riffs:


e---------------------------------|
b---0-----0-----0---0-----1---1---|
g-----0-----0-----0---0-----0---0-|
d---------------------------------|
a---------------------------------|
e---3-----3-----3---3-----3---3---|
Show more