• Song:

    Past Recedes

  • Artist:

    John Frusciante

sponsored links
John Frusciante - The Past Recedes           tabbed by Berney

Intro:
G D Am Em x3

G D Am

Verse:
G (320003@1)D (xx0232@1)Am (x02210@1)name="chord_022000@1">Em    
And then the past recedes
G D Am Em
And I won't be involved
G D Am Em
The effort to be free
G D Am Em
Seems pointless from above
G D Am Em
Yor're looking down at' me
G D Am Em
I'd rather stay below
G D Am Em
Than have you staring up at me
G (320003@1)name="chord_xx0232@1">D                      Am (x02210@1) BTheres (x2444x@1)nowhere I want to goooooooo

C (x32010@1)      D7 (xx0212@1)            Em (022000@1)           DAy, (xx0232@1)this business of how long we try to stay alive
C (x32010@1)    D7 (xx0212@1)                 Em (022000@1)Why to be here you've first got to die
DSo (xx0232@1)I gave it a try
    C (x32010@1)         G (320003@1)
And what do you know
            Am (x02210@1)    D7Time (xx0212@1)was so long ago

G D Am Em
And thinks come back you see
G D Am Em
To where they don't belong
G D Am Em
And every drop of sea 
G (320003@1)name="chord_xx0232@1">D                     Am (x02210@1) BIs (x2444x@1)the whole ocean      oooooooohhh 

  C (x32010@1)         D7I (xx0212@1)lied to the greatest thieves
      Em (022000@1)         D (xx0232@1) 
About anything and everything
C (x32010@1)   D7 (xx0212@1)         EmI'm (022000@1)a figure of forgotten speech
DI'm (xx0232@1)our of reach 
C (x32010@1)             G (320003@1)I can't play it safe
            Am (x02210@1)        D7 (xx0212@1)But I might just in case


Solo:
(use verse chords)

A|-10--8h10p8-----------------------------------7--------------------------------------------------------|
B|------------------10---8h10p8------8-----8-------10?8?7--8---------------------------------------------|
G|-----------------------------------11----9------------------------------11--9--8?8h9p8-----------------|
D|------------------------------------------------------------------------------------------------10-----|
A|-------------------------------------------------------------------------------------------------------|
E|-------------------------------------------------------------------------------------------------------|


E|----------------------------------------------------------------------------3---7--5h7p5--3?10---|
B|--------------------------------------------------------------3--1h3p1---------------------------|
G|------------------------------------------------4------------------------------------------------|
D|-10--8--10--8--6--5--6---6--5--3-----3---5-----5-------------------------------------------------|
A|----------------------------------------6--------------------------------------------------------|
E|-------------------------------------------------------------------------------------------------|


E|--10 ---12b?12b?12b?14b?14b?14b---12?12s8----5--------------------------------|
B|------------------------------------------------------------------------------|
G|------------------------------------------------------------------------------|
D|------------------------------------------------------------------------------|
A|------------------------------------------------------------------------------|
E|------------------------------------------------------------------------------|


C (x32010@1)  D7 (xx0212@1)          EmI'm (022000@1)disguised as a reaching hand
DI'm (xx0232@1)working man
  C (x32010@1)       D7 (xx0212@1)I dont understand why clockout
Em (022000@1)          DComes (xx0232@1)so slow every time
       C (x32010@1)        G (320003@1)          AmThat's (x02210@1)one line I stay right behind
       C (x32010@1)        G (320003@1)          Am (x02210@1)  BThat's (x2444x@1)one line I stay right behind

G D Am Em x3

G (320003@1)name="chord_xx0232@1">D Am (x02210@1)name="chord_x2444x@1">B  G (320003@1)this tabb is 100% correct so enjoy and rate plz!!

Greetz Berney

Show more
sponsored links
sponsored links