• Song:

    Unreachable

  • Artist:

    John Frusciante

  • Album:

    The Empyrean

sponsored links
-------------------------------------------------------------------------------
Unreachable ? John Frusciante
-------------------------------------------------------------------------------

Tabbed By: Iago (:

G|---------|--------------------|---------------------|---------------------|
D|---------|--------------------|10-8-6---------------|6-6-8----8-6---------|
A|--4--6---|------6--8-8-8-88-8-|-------8-6--8-8-88-8-|------6------6-8-8-8-|
E|---------|--4-4---------------|---------------------|---------------------|

G|-------------------------------------|--------------------|-----------------
D|-------------------------------------|--6-6---------------|--6-6------------
A|-4-4-6-6-----------------------------|------6-6-8-8-8-88-8|------6-8-8-6h8--
E|---------6-6-6-6-6h8p6-6-6-6-6-6h8p6-|--------------------|-----------------
                                               
G|----------------------|-----------------------------|-----------------------
D|-6h8-8/10-10-10-8\6---|-6-6-8---8/10-8-8\6----------|-----------------------
A|--------------------8-|-------6------------8-8-8-8--|4-4-6-6----------------
E|----------------------|-----------------------------|--------6-6-6-6-6-6-6--

G|------------------|--------|--------|--------|-----------------------------|
D|------------------|--------|--------|--------|-----------1-3-1---------1---|
A|------------------|--------|--------|--------|-------1-------------1-3--3--|
E|-6/18-18-18-18-18-|-1-1-4-4|-1-1-4-4|-1-1-4-4|-1-1-4---4-------1-4---------|
				  
G|-----------------------------------|
D|------------------1-1-13/----------|
A|--------------11/---------1-1-13/--|   <--- 8 times this part
E|-1-1-13/--4-4----------------------|

G|-----------------------8---------------------------------------------------|
D|-----10-----------8h10---10-8------------5-6-8-8-8-8-6-5---------------6h8-|
A|-8-8----8-8h10h11-------------11-6-6-6-6-----------------8-6-8-8-8-6h8-----|
E|---------------------------------------------------------------------------|

G|----------------------------------------------------------10---------------|
D|-6-6-6-8-10-8-8-10-8/6-8-8-6-5---------8/10-10-8-6-6?8/10----10-8-6--------|
A|-------------------------------8-6-8-8-------------------------------------|
E|---------------------------------------------------------------------------|

G|----------------------------8-10-8h10-8h10-10-12|--------------------------|
D|-----------6-8-8-8-8-8-8h10---------------------|--------------------------|
A|-6-6-6-6h8--------------------------------------|-4-4-4-4-4-4-4-4?4-4-4-4--|
E|------------------------------------------------|--------------------------|

G|---------------------------------------------------------------------------|
D|---------1-1-1-1------------------------------------1-1-1------------------|
A|--------------------------1-3-4-4-4-4-4-4-4-4------------------------------|
E|-1-1-1-1---------1-1-1-11----------------------4-4-4------1-1-1-1-1--------|

G|-----------------------------------------|-------------------|-------------|
D|-----------------------------------------|-------3-1---------|-----3-1-----|
A|-4-4-44-4-4-4-4-4-4-4-4--1-1-1-1-1-1-1-1-|-----3-----1-------|---3-----1---|
E|-----------------------------------------|-1-----------4-3-0-|1----------4-|

G|-----|----------------|-----------------|-----------------|-----------------
D|-----|-----3-1--------|------3-1--------|------------1----|-----1-----------
A|-----|---3-----1------|----3-----1------|------3-1-----1--|-------3-1-----1-
E|-3-0-|1----------4-3-0|1-----------4-3-0|1-3-4-----4-----0|1-3-4------4-1---

G|---------|----------------------------------|------------------------------|
D|---------|----------------------------------|------------------------------|
A|---------|------3-1-1h3-1---1---------------|------------6h8-6-6-66-6-6-6--|
E|-4-3-4-0-|1-3-4-----------4---4-2-0-2-4-1-0-|-1-3-4-6-8--------------------|

And the solo begins...

G|----------------|-----------------|-------------------|---------------------
D|-----3-1--------|-----3-1---------|-------------1-----|-------1-------------
A|----3---1-------|---3-----1-------|-------3-1-----1---|---------3-1-----1---
E|-1--------4-3-0-|-1---------4-3-0-|-1-3-4-----4-----0-|-1-3-4-------4-1-----

G|---------|-----------------------------------|-----------------------------|
D|---------|-----------------------------------|-----------------------------|
A|---------|-------3-1-1h3-1---1---------------|------------6h8-6-6-66-6-6-6-|
E|-4-3-4-0-|-1-3-4-----------4---4-2-0-2-4-1-0-|-1-3-4-6-8-------------------|

			4:17
G|----------12--8--8-8-8-8|-13-12-10-5-----------|-13-12-10-5--------------|
D|------------------------|------------6-5-------|------------6-5--5-------|
A|------------------------|----------------8-6-6-|----------------6--------|
E|-0-1-3-4----------------|----------------------|-------------------------|

G|---------------------------------------------------------------------------|
D|---------------------------------------------------------------------------|
A|---------------------------------------------------------------------------|
E|---------------------------------------------------------------------------|

4:34
G|----------------------------------------------------|
D|-----------------8-10-8-8-8-8-----------------------|
A|-8-8-10-10-11-11--------------10-10-------10----10--|
E|------------------------------------11-11----11-----|

G|----------------------------------------------------|
D|-----------------10-8-10-8-8------------------------|
A|-8-8-10-10-11-11--------------10-10--------10-11----|
E|------------------------------------11-11--------11-|

G|--------------------------------------------------------|
D|----------------------10-8-8-----------------8----------|
A|-8-8-10-10-11-11-11-----------11-11-10-10------10-------|
E|------------------------------------------11------11----|

G|----------------8---------------------------5-8-|
D|-----------8/10---10-8-10-8-6-----5-5-6-6-8-----|
A|-8-8-10-10--------------------6-6---------------|
E|------------------------------------------------|

4:54
G|-13-12-10-5-----------------8---5-8-|
D|------------6-5---5---5-6-8---8-----|
A|----------------6---6---------------|
E|------------------------------------|

G|-13-12-10-5-------------------------|
D|------------6-5---5---------------5-|
A|----------------6---6-------5-6-8---|
E|----------------------3-4-6---------|

G|-13-12-10-5-----------------8-10-8--|
D|------------6-5---5---5-6-8---------|
A|----------------6---6---------------|
E|------------------------------------|

5:08
G|---------------------------------------------------------------|
D|-3-3-33-3-3-33-3---------------------------------1-1-1-1-------|
A|-----------------1-3-4-4-4-4-4-4-4-4-3-1-----------------------|
E|-----------------------------------------4-1-1-1---------1-1-1-|


G|-------------------------------------------------|
D|----------------------------------1-1-1----------|
A|-1-3-4-4-4-4-4-4-4-4-4-4-------------------------|
E|--------------------------4-4-4-4--------1-1-1-1-|

5:39
G|-------------------------------------------|
D|-------------------------------------------|
A|-1-3-4-4-4-4-4-4-4-4-3-1-1-1-1-1-1-1-1-1-1-|
E|-------------------------------------------|

G|--------------------------|
D|--------------------------|
A|-1/8---6---6-8---6----8---|	The end
E|--------------------------|
Show more
sponsored links
sponsored links