• Song:

    Big Slice

  • Artist:

    Jonas And The Massive Attraction

  • Album:

    Big Slice

www.jonasandthemassiveattraction.com

UPDATED
I tabbed this myself, it's pretty close! Probably not 100% correct on all of it, but i'm 
pretty sure most of it is right. Listen to the song, obviously, to get the rhythm and timing.

Drop D Tuning
Intro:
------------------------------------------------------------------------|
------------------------------------------------------------------------|
------------------------------------------------------------------------|
------------------------------------------------------------------------|
------3-0-----3-0-----3-0---5--3----Then Last Time This---6-5---3-4-----|
----0-3-0---0-3-0---0-3-0---5--3------------------------0-6-5-0-3-4-----|

Verse: Palm Mute
--------------------------------------------------------------------------|
--------------------------------------------------------------------------|
--------------------------------------------------------------------------|
--------------------------------------x-Pre Chorus-x----------------------|
------3-------3------3-----6-5-0-3-4--------2-2x-----5-2x-----2-2x--------|
--0-0-3---0-0-3--0-0-3---0-6-5-0-3-4----0-0-2----0-0-5----0-0-2---0-5-5-5-|

Chorus:
--------------------------------------------------------------------|
--------------------------------------------------------------------|
-----5--------------------------------------------------------------|
--0--5--5----3---2---7-5--------------------------------------------|
--0--3--5----3---2---7-5--------------------------------------------|
--0-----5--0-3-0-2-0-7-5--------------------------------------------|

No solo sorry, but it sounds pretty close to me, except maybe the chorus. So please, 
send comments, or any corrections to me. Hope this helps you, because this is a great 
song!! Mark   newfiemark044@gmail.com
Show more