• Song:

    Cheater

  • Artist:

    Judas Priest

  • Album:

    Hero, Hero

Standard Tuning
Ian Hill used a Fender Jazz Bass to record this track.

Intro:
G|----------------------------------|
D|----------------------------------|
A|-7-7-7x----7-7-7/--7-7-7x--7-7-7--|
E|----------------------------------|

And the whole song:
G|------------------|
D|----------------5-|
A|-7-777-777-77-57--|
E|------------------|


G|------------------|
D|----------7--77-3-|
A|-7-777-77---------|
E|------------------|
Show more