-------------------------------------------------------------------
			     IT'S OVER - Just Like Vinyl
-------------------------------------------------------------------

Tabbed By : Blkblkblk50

Tuning: Standard EADG


G---------------------------------------------------------------|
D-----------------------------------7---------------------------|
A------------------------------7-10-----------------------------|
E--------8------------88--------------8------88-----------------|

|---------------------------------------------------------------|
|---------------7--10-10--9-9--7-7--7h9p7-----------------------|
|----------7-10--------------------------9p7--------------------|
|-------------------------------------------8-------------------|

|---------------------------------------------------------------|
|---10-10--9-9--7-7-------7--10-10--9-9--7-7--7h9p7-------------|
|--------------------7-10--------------------------9p7----------|
|-----------------------------------------------------8---------| (x3)

|---------------------------------------------------------------|
|---10-10--9-9--7-7-------7-------------------------------------|
|--------------------7-10---------------------------------------|
|-----------------------------88---------88----------55-----55--|

|-------------------------------------|
|-------------------------------------|
|-------------------------------------|
|---88---------88----------55-----55--|

|-------------------------------------|
|-------------------------------------|
|-------------------------------------|
|---888--------888---------555----555-| (x2)


Back to the top with:
|---------------------------------------------------------------|
|-----------------------------------7---------------------------|
|------------------------------7-10-----------------------------|
|--------8------------88--------------8------88-----------------|

|---------------------------------------------------------------|
|---------------7--10-10--9-9--7-7--7h9p7-----------------------|
|----------7-10--------------------------9p7--------------------|
|-------------------------------------------8-------------------|

|---------------------------------------------------------------|
|---10-10--9-9--7-7-------7--10-10--9-9--7-7--7h9p7-------------|
|--------------------7-10--------------------------9p7----------|
|-----------------------------------------------------8---------|

|---------------------------------------------------------------|
|---10-10--9-9--7-7-------7-------------------------------------|
|--------------------7-10---------------------------------------|
|-----------------------------88---------88----------55-----55--|

|-------------------------------------|
|-------------------------------------|
|-------------------------------------|
|---88---------88----------55-----55--|

|-------------------------------------|
|-------------------------------------|
|-------------------------------------|
|---888--------888---------555----555-| (x3)

|-------------------------------------|
|-------------------------------------|
|-------------------------------------|
|---888--------888---------555----55--|

The end is mostly this, but with slight rhythm variations and a speed up at the end of 
the 4th one:

|---------------------------------------------------------|
|---------------------------------------------------------|
|---------------------------------------------------------|
|-3-3-3-3-3-3-2-2-2-2-2-2-8-8-8-8-8-8-8-8-8-8-8-8-7-7-----| (x7)

|---------------------------------------------------------|
|---------------------------------------------------------|
|---------------------------------------------------------|
|-3-----------2-----------8-------------------------------|

Aaaaaaaand It's over.

| /  slide up
| \  slide down
| h  hammer-on
| p  pull-off
| ~  vibrato
| +  harmonic
| x  Mute note
===============================================================
Show more