sponsored links
-------------------------------------------------------------------------------
                             SEƑORITA - Justin Timberlake
-------------------------------------------------------------------------------
Tabbed by: Alejandro Gallardo Rueda
Email: gordinflin@gmail.com

Tuning: Standard

Timing: |       |       |       |       |       |       |       |

e|------20----------19------17--15------14------14--12----------------|
B|--------------------------16--16------15------15--13----------------|
G|------20----------20------14--14--------------14--12----------------|
D|------19----------19------------------14----------------------------|
A|--------------------------------------------------------------------|
E|--------------------------------------------------------------------|

=======================================================================

It's not exactly what I hear, because what I hear is an organ. (Haha) I've just 
the sounds to my electric guitar and I think it sounds almost perfect.

If somebody thinks that I'm wrong, or wanted to complete the whole song with the bridge, 
e-mail me.
Show more
sponsored links
sponsored links