tabbed:  rajha tahir


intro/verse
e-----5-----7--0---0-----0-----------------|
B-2h3--3---7----0---0---3-3----------------|
G----2----(b9)--2---2----2---2---------------|
D--------(b9)-----------0--------------------|
A-2-----7----0---5-------------------------|
E------------------------------------------|

V1
Bm           E     A2      A/C#m     D
Here I am waiting.Abide in me    I pray.
Bm           E         A2 A/C#m D
Here I am longing.For you Yeah
Bm               E     A2    A/C#m    D
Hide me in your love Bring me to my knees
Bm           E             A2 A/C#m D
May i know Jesus More and more

RIFF
e--7(b9)-7--7(b9)-7-------------------|
B-----10-10---10-(b9)10---------------|

CHORUS
A2            D/F#m         Bm7        E
Come live in me all my life Take over
A2            D/F#m      Bm7      E     A2
Come live in me I will Rise on eagles wings


V2(same chords in V1)
Beutiful Savior Lord i love to feel your touch
You never forsake me lord you are your always there
Each passing moment it's you that i adore
i love you jesus more and more and more
Show more