• Song:

    Flyvere I Natten

  • Artist:

    Kim Larsen

sponsored links
-------------------------------------------------------------------------------
Flyvere I Natten (acoustic) ? Kim Larsen & Kjukken
-------------------------------------------------------------------------------
Tabbed by: Jake Lamson
Email: lamsonja@msu.edu

Tuning: EADGBe

This is tabbed from Det Var En Torsdag Aften.  I?ll do the intro and first verse here, 
rest should be pretty easy to figure out from that.  Check out the other version for the 
as they are generally right.

Intro:

e|---------------------------------------------------------------------------|
B|------1-----------1---------1-------1--------------------------------------|
G|----0---0-------0---0-----0---0---0---0------------------------------------|
D|------------0--------------------------------------------------------------|
A|-3---------------------2--------3------------------------------------------|
E|---------------------------------------------------------------------------|


Repeat 4x

Verse:

     Jeg kan hÝre?                   Flyvere  i  natten?
e|---------------------------------------------------------------------------|
B|---------1---------1----------0---------0-----------1------------1---------|
G|-------0---0-----0---0------0---0-----0---0-------0---0-------0----0-------|
D|---------------------------------------------------------0h2---------------|
A|---3----------3--------------------2-----------0---------------------------|
E|------------------------3--------------------------------------------------|

                          Er det fjende?            eller ven?
e|-------------------------------0-------1-----------------------------------|
B|------1-----------1--------------1---1---1-------1-----------0---------1---|
G|----0---0-------0---0-------2------2-------2---2---2-------0---0-----0---0-|
D|-----------0h2------------0------------------0-------0---------------------|
A|-0----------------------0-----------------------------------------2--------|
E|--------------------------------------------------------3------------------|

                      Er de nu     det sker    Er de nu    de kommer?
e|---------------------------------------------------------------------------|
B|------1--------0-----------1----------0----------1------------0-------0----|
G|----0---0----0---0-------2---2----------0------2---2--------0---0---0---0--|
D|--0--------------------3------------0--------3--------------------0-------0|
A|----------2-----------------------2-----------------------2----------------|
E|---------------------------------------------------------------------------|

    igen
e|---------------------------------------------------------------------------|
B|--------1-------1-------1-------1------------------------------------------|
G|------0---0---0---0---0---0---0---0----------------------------------------|
D|------------0-------3-------2-------------(repeat)-------------------------|
A|---3-----------------------------------------------------------------------|
E|---------------------------------------------------------------------------|

The rest of it is variations on that more or less.  The chords for the bridge are on the 
version, same basic style of play.

Enjoy
Jake


| /  slide up
| \  slide down
| h  hammer-on
| p  pull-off
| ~  vibrato
| +  harmonic
| x  Mute note
===============================================================================
Show more
sponsored links
sponsored links