• Song:

    An English House

  • Artist:

    Kings Of Convenience

  • Album:

    Kings of Convenience

sponsored links
Tunning : E A D F# A E 
 
Tempo : Allegro 
 
E------------------------------------|---------------------------------| 
A------------------------------------|---------5-------0-------5-------| 
D---5-------4-------4-------4--------|-5-------------------------------| 
F#----0---0---0---0---0---0---0---0--|---0---0---0---0---0---0---0---0-| 
A-------0-------0-------0-------0----|-----0-------0-------0-------0---| 
E------------------------------------|---------------------------------| 
 
 
 
|---------5-------5-------5-----5--|----------------------------------| 
|----------------------------------|----------5-------0-------5-------| 
|-7--------------------------------|--5-----5-------------------------| 
|---0---0-----0-------0-------0----|------------0---0---0---0---0---0-| 
|-----0-----4---4---4---4---4------|----5-0-------0-------0-------0---| 
|----------------------------------|----------------------------------| 
 
Repeat upper riff during the whole music Until the voice stops with a 
huming. 
 
Then comes the last riff: 
 
 
E------------------------------------|---------------------------------| 
A------------------------------------|---------5-------0-------5-------| 
D---5-------4-------4-------4--------|-5-------------------------------| 
F#----0---0---0-------0-------0---0--|---0---0---0---0---0---0---0---0-| 
A-------0---------0-------0-----0----|-----0-------0-------0-------0---| 
E---------------0-------0------------|---------------------------------| 
 
 
|---------5-------5-------5-----5--|----------------------------------| 
|----------------------------------|----------5-------0-------5-------| 
|-7--------------------------------|--5-----5-------------------------| 
|---0---------0-------0-------0----|------------0---0---0---0---0---0-| 
|-------0---4---4---4---4---4------|----5-0-------0-------0-------0---| 
|-----0----------------------------|------0---------------------------| 
 
 
|-5---------------------------------| 
|-----------5-------0-------5-------| 
|---5-----5-------------------------| 
|-------------0---0---0---0---0---0-| 
|-----5-0-------0-------0-------0---| 
|-------0---------------------------|
Show more

Warning: Smarty error: unable to read resource: "ads ext_up.html" in /home/black_magic/musicnoteslib.com/lib/Smarty.class.php on line 1093
sponsored links
sponsored links