• Song:

    I Dont Know What I Can Save You From

  • Artist:

    Kings Of Convenience

sponsored links
Band: Kings of Covenience 
Song: I don't know what I can save you from

INTRO:

e|--------------------|--------------------|
H|------------8-6-----|------------8-6-----|
G|-----8----8-----8-7-|-----5----8-----8-7-|
D|---8----------------|-5-8----------------|
A|-6------------------|--------------------|
E|--------------------|--------------------|

e|--------------------|--------------------|
H|------------6-------|-----------6--------|
G|-----5----7---8-7---|-5---5-8-9---8------|
D|-5-8--------------8-|--------------------|
A|--------------------|--------------------|
E|--------------------|--------------------|

Tabbed by Marianne Aasebø - bloody_mary_04@hotmail.com
Show more

Warning: Smarty error: unable to read resource: "ads ext_up.html" in /home/black_magic/musicnoteslib.com/lib/Smarty.class.php on line 1093
sponsored links
sponsored links