• Song:

    Me In You

  • Artist:

    Kings Of Convenience

  • Album:

    Declaration Of Dependen...

sponsored links
hopefully this is right and will help all you kings of convienience fans out there :)

there is a piano intro but if you listen you can tell when the guitar comes in.

e-----10----10----10----10----10----10-------------------------------------|
B---11----11----------11----11------------11----11----11----11----11----11-|
G-12----12----12----10----10----10------10----10----------10----10---------|
D-------------------------------------13----13----13----12----12----10-----|
A--------------------------------------------------------------------------|
E--------------------------------------------------------------------------|

e--------------------------------------------------------------------------|
B-----------------------------11--------11----11----11----11----11----11---|
G-----10----10----10----10--10----10--10----10----------10----10-----------|
D---10----10----------10--10----12--13----13----13----12----12----12-------|
A-12----12----12----13-----------------------------------------------------|
E--------------------------------------------------------------------------|


once you get to the end just go strait back into the start in time and repeat that till 
the chord change.

hope this is of help :)
Show more
<-- 1 --> sponsored links
sponsored links