• Song:

    Rock City

  • Artist:

    Kings Of Leon

You can figure out the timing yourself...
NUNDIES RETURNS!!!

Any comments/corrections welcomed!

Rhythm is open chords;
D - B - A - G

e|-----------------------------------------------------------------------------|
B|-----------------7--10--------------------------------7-8-7-8-7--------------|
G|----9b11-hold--9---9----9b11-9b11r9-9b11r9-7-9-7---7-------------9-----------|
D|-------------------------------------------------9------------------9-9b11-9-| 
A|-----------------------------------------------------------------------------|
E|-----------------------------------------------------------------------------|


e|----------------------------------------------------------------8b10--10b12--|
B|--------------3----5----7-9b11-7---------9b11r9-7-9-7---11b13----------------|
G|---------------------------------7-7-9-7-------------------------------------|
D|----4-2-4-2/4--4/5--5/7------------------------------------------------------|
A|-----------------------------------------------------------------------------|
E|-----------------------------------------------------------------------------|


e|-----------------------------------------------------------------------------|
B|--------8------10------11-------12----15-------------------------------------|
G|-----------------------------------14----------------------------------------|
D|----8/9---9/10---10/12----12/14----------------------------------------------|
A|-----------------------------------------------------------------------------|
E|-----------------------------------------------------------------------------|
Show more