• Song:

    Shes Got Everything

  • Artist:

    Kinks

There's no tab for this nice song, so i'm doing it. It's my first tab.

I think you will only need this:

Intro
|----------------------------------------------------------------------|
|----------------------------------------------------------------------|
|----------------------------------------------------------------------|
|----------------------------------------------------------------------|
|------3---------------------------------------------------------------|
|-3--3-----1--1--1-3---------------------------------------------------|

Main Riff
|----------------------------------------------------------------------|
|----------------------------------------------------------------------|
|------5---------------------------------------------------------------|
|-5--5-5---3--3-5------------------------------------------------------|
|-5--5-3---3--3-5------------------------------------------------------|
|-3--3-----1--1-3------------------------------------------------------|


Have fun playing this great band !
Show more