Tune 1/2 Step down

Intro (bass comes in towards the end)
Gb|----------------------------------------------|
Db|--------5----7--------------------------------|
Ab|-/7--------------3----------------------------|
Eb|----------------------------------------------|

Verse
Gb|----------------------------------------------|
Db|----------------------------------------------|
Ab|--5------5--5--------5------5--5--------------|
Eb|----------------------------------------------|

Gb|----------------------------------------------|
Db|----------------------------------------------|
Ab|--3------3--3--------3------3--2----0---------|
Eb|----------------------------------------------|

Gb|----------------------------------------------|
Db|----------------------------------------------|
Ab|--5------5--7------7--8-----8\----------------|
Eb|--------------------------------3-------------|

Gb|----------------------------------------------|
Db|----------/7----5-----------------------------|
Ab|--3----3--------------7----3-----------12\----|
Eb|----------------------------------------------|

Verse
Gb|----------------------------------------------|
Db|----------------------------------------------|
Ab|--5------5--5--------5------5--5--------------|
Eb|----------------------------------------------|

Gb|----------------------------------------------|
Db|----------------------------------------------|
Ab|--3------3--3--------3------2--3--0--2--3-----|
Eb|----------------------------------------------|


Gb|----------------------------------------------|
Db|----------------------------------------------|
Ab|--5------5--7------7---8------8\--------------|
Eb|---------------------------------3-----3------|


Gb|----------------------------------------------|
Db|----------------5----7------------------------|
Ab|--3-----3-/7--------------3-----3--3--2--0----|
Eb|----------------------------------------------|



Pre-Chorus
Gb|----------------------------------------------|
Db|----------------------------------------------|
Ab|--8----7----5------5--5------5--5------5------|
Eb|----------------------------------------------|

Gb|----------------------------------------------|
Db|----------------------------------------------|
Ab|--8----7\---5------5\-------------------------|
Eb|----------------------1--------3--------------|


Chorus
Gb|----------------------------------------------|
Db|------------------5\-------------------5\-----|
Ab|--3------3--5/7--------3------3--5/7----------|
Eb|----------------------------------------------|

Gb|----------------------------------------------|
Db|--------------5/7---5-----------5h7---5-------|
Ab|--5------5-------------5------5---------------|
Eb|----------------------------------------------|
                                               
Gb|----------------------------------------------|
Db|-----3----2----0------------------------------|
Ab|--------------------3------------0----2-------|
Eb|--1--------------------3------3---------------|

Gb|----------------------------------------------|
Db|-----------------5----7-------------------5---|
Ab|--3------3-/7--------------5-----5--8---------|
Eb|----------------------------------------------|

Gb|----------------------------------------------|
Db|------------------5\-------------------5\-----|
Ab|--3------3--5/7--------3------3--5/7----------|
Eb|----------------------------------------------|

Gb|----------------------------------------------|
Db|--------------5/7---5-----------5h7---5-------|
Ab|--5------5-------------5------5---------------|
Eb|----------------------------------------------|

Gb|----------------------------------------------|
Db|----------------------------------------------|
Ab|--8----7----5---------------------------------|
Eb|---------------------1--------3---------------|

Gb|----------------------------------------------|
Db|----------------------------------------------|
Ab|--3------3--3------3\5------5-----------------|
Eb|--------------------------------3------3------|

Verse                                           
Gb|----------------------------------------------|
Db|-----------------5-----------------5----------|
Ab|---5-----5--/7------5-----5--/7---------------|
Eb|----------------------------------------------|

Gb|----------------------------------------------|
Db|----------------------------------------------|
Ab|--3-----3--3-------0---3-----3--2-----0-------|
Eb|---------------3------------------------------|
                                               
Gb|----------------------------------------------|
Db|----------------------------------------------|
Ab|--5------5--7-----7------8------8\------------|
Eb|-----------------------------------3-------3--|

Gb|----------------------------------------------|
Db|------------------5---7-----------------------|
Ab|--3------3--/7-------------3------3--2----0---|
Eb|----------------------------------------------|
   
Pre-Chorus                                        
Gb|----------------------------------------------|
Db|----------------------------------------------|
Ab|--8----7----5------5----5-----5--5------5-----|
Eb|----------------------------------------------|

Gb|----------------------------------------------|
Db|----------------------------------------------|
Ab|--8----7----5------5----5-----5--5------5-----|
Eb|----------------------------------------------|

Gb|----------------------------------------------|
Db|----------------------------------------------|
Ab|--8----7----5---------------------------------|
Eb|---------------------1--------3--3------------|

Gb|----------------------------------------------|
Db|------------------5---7--------------3-----5--|
Ab|--3------3--/7-------------5------5-----------|
Eb|----------------------------------------------|

Gb|----------------------------------------------|
Db|------------/7---5----------------------------|
Ab|--3------3-------------3------3--2----3-------|
Eb|----------------------------------------------|

Gb|----------------------------------------------|
Db|----------------------------------------------|
Ab|--8----7----5---------------------------------|
Eb|---------------------1--------3---------------|

Outro
Gb|----------------------------------------------|
Db|----------------5--7--------------------------|
Ab|--3------3--/7----------3---------------------|
Eb|----------------------------------------------|

Gb|----------------------------------------------|
Db|-----------------5--------------/7-----5------|
Ab|---5-----5--7--------5-----5------------------|
Eb|----------------------------------------------|

Gb|----------------------------------------------|
Db|-----------------5----------------------------|
Ab|---3-----3--/7------3-----3--0-----2----------|
Eb|----------------------------------------------|

Gb|----------------------------------------------|
Db|-----------------5--------------/7-----5------|
Ab|---5-----5--/7--------5-----5-----------------|
Eb|----------------------------------------------|

Gb|-------------------------/9-----7----5--------|
Db|-----------------5----------------------7--5--|
Ab|--3------3--/7-------3------------------------|
Eb|----------------------------------------------|

Gb|----------------------------------------------|
Db|-----------------5--------------7-----5\------|
Ab|---5-----5--/7--------5-----5-----------------|
Eb|----------------------------------------------|

Gb|----------------------------------------------|
Db|-----------------5----------------------------|
Ab|---3-----3--/7-------3--0-----2----3----4-----|
Eb|----------------------------------------------|

Gb|----------------------------------------------|
Db|-----------------5--------------7-----5-------|
Ab|---5-----5--/7--------5-----5-----------------|
Eb|----------------------------------------------|

Gb|----------------------------------------------|
Db|-----------------5------------5--7--5---------|
Ab|---3-----3--/7------3-----/7------------7-----|
Eb|----------------------------------------------|

Gb|----------------------------------------------|
Db|-----------------5------------/7-----5--------|
Ab|---5-----5--7--------5-----5------------------|
Eb|----------------------------------------------|

Gb|----------------------------------------------|
Db|------------------5-------------5--7--5-------|
Ab|--3------3--/7--------3-----/7------------7---|
Eb|----------------------------------------------|

Gb|----------------------------------------------|
Db|-----------------5-------------7---5----------|
Ab|---5-----5--7--------5-----5-----------7---5--|
Eb|----------------------------------------------|

Gb|----------------------------------------------|
Db|-----------------5----------------------------|
Ab|3------3--/7---------3---0-----2-----3---3---4|
Eb|----------------------------------------------|
Show more