Magick Tab by The Klaxons


----------------------------------------------------------------------------
			     SONG NAME - Band Name
----------------------------------------------------------------------------
Tabbed by:jamie carpenter white
Email:

Tuning:standard
intro & main riff
e|-------------|-----------------------------------|
B|-------------|-----------------------------------| repeat as many times
G|-------------|---------10------------------------|
D|-------------|--10-10----10--11---8----11--------|
A|-8 x 16------|-----------------------------------| as needed
E|-------------|-----------------------------------|

verse
e|--------------------------------------------------------------------------|
B|--------------------------------------------------------------------------|
G|--------------------------------------------------------------------------|
D|--------------------------------------------------------------------------|
A|---8-8-8-8-11-11-10-10-x 4-----------------11-11-10-10-x-4----------------|
E|------------------------------12-12-12-12---------------------------------|

chorus
e|--------------------------------------------------------------------------|
B|--------------------------------------------------------------------------|
G|----18~------17~-------15~------14~-----x2--------------------------------|
D|--------------------------------------------------------------------------|
A|--------------------------------------------------------------------------|
E|--------------------------------------------------------------------------|
pause
e|--------------------------------------------------------------------|
B|-------------------------------then--------18~-----------20~----19~-|
G|--------------------------------------------------------------------|
D|--------------------------------------------------------------------|
A|----------8---------------------------------------------------------|
E|-----8-8----8--9-6-9-x2---------------------------------------------|

this high pitched part repeats a few times under the main riff and then you got back to 
verse

the chorus is then repated several times, then you play the verse notes under the 
then back to the high pitched part a few times and you are done

| /  slide up
| \  slide down
| h  hammer-on
| p  pull-off
| ~  vibrato
| +  harmonic
| x  Mute note
===============================================================================
Show more