• Song:

    Stars

  • Artist:

    Lacuna Coil

  • Album:

    The EPs - Lacuna Coil /...

sponsored links
Band- Lacuna Coil
Song- Stars

Tuning: EADGBe

Intro Guitar 1 
|-------------------------|
|--------------8-------8--|
|--------8--5--------5----|
|--5--6-----------8-------|
|-------------------------|
|-------------------------|


Intro Pt2 Guitar 1
|----------------------------------------------------|
|-----------8-----------5--8-------8-----------------|
|-----5--------5--8-----------5-------5--8-----------|
|--5-----8-----------6-----------8----------6--5--3--|
|----------------------------------------------------|
|----------------------------------------------------|


Intro Pt2 Guitar 2
|----------------------------|
|----------------------------|
|----------------------------|
|--3--5--3-x-3---3--6--5--3--|
|--1--3--3-x-3---1--4--3--3--|
|--1--3--1-x-1---1--4--3--1--|

Pre-Chorus
|---------------------------------------------------------------------|
|---------------------------------------------------------------------|
|----5---5---3---3---8---8---8---8-----3---3---6---6---0---0----------|
|--------------------------------------------------------------3---3--|
|--4---4---3---3---6---6---6---6-----1---1---4---4---3---3------------|
|------------------------------------------------------------1---1----|

Chorus
|---------------------------|
|---------------------------|
|---------------------------|
|--3--5--8--8---3--6--5--3--|
|--1--3--6--8---1--4--3--3--|
|--1--3--6--6---1--4--3--1--|
Show more
sponsored links
sponsored links