• Song:

    My Eyes Are Red

  • Artist:

    Laid Blak


Hi guys.
i love this song simply because it is awesome, and because these guys are from Bristol,
just like me. Unbelieveably, there are no tabs for this song ANYWHERE on the net, so i
couldnt resist being the first. I think that you tune the low E down to a D#. Also, Its 
my first true tab, so, you know, be nice :-)

e )--------------------------------------------------------x|
B )9-9-9---7-7-7---6-6-6-6--6-6p4-2-----2-4-4h6p4-2-4-----x-|
G )-------------------------------3-3-3------------------x--|
D )-9-9-9-8-8-8-8-6-6-6-6---6-6-----1-1-----------1-----x---|
A )-----------------------------------------6---------------|

e )----------------------|
B )7-66---7--6--7--6-----|
G )--------8--6--8--6-6h8|--> Eeeeeeeeee...  X 7
D )8-66-----8--8--8--8---|
A )----------------------|

CHORUS (chords)

My eyes are red, ive been burnin'

ive been burnin'

---my eyes are red...

the song then goes more dub so theres no more acoustic guitar, and i cant here any
electric, just bass and percussion, so yeah, there you go,

happy guitar playing, happy bass playing, happy smoking and MERRY XMAS!!
Show more