• Song:

    Picking Oranges

  • Artist:

    Leddra Chapman

  • Album:

    Telling Tales (Bonus Ve...

So...somebody tabbed this song out before, and they did a great job, but I felt like it 
was not quite correct in some parts which is why I decided to tab it out myself. For 
this version, two guitarists are needed. :)
---------------------
CAPO 1



GUITAR 1
e)|---------------------------------------------------------|
b)|------1---1-------1---1-------1---1-------1---1----------|
g)|----0---0-------0---0-------0---0-------0---0------------|         4x
d)|---------------------------------------------------------|
a)|--3-----------0------------------------------------------|
e)|--------------------------3-----------1------------------|
Walk through rain with me,
Soak the sun with me,
Lose control,
Let go,
Catch the snow with me,
Feel the cold underneath your feet,
'Cos I know,


GUITAR 1
e)|---------------|
b)|------1-3------|
g)|----0----------|
d)|--0------------|
a)|---------------|
e)|-------------3-|
You'll hold me,
Next time you pass me by.

GUITAR 1
e)|---------------------------------------------------------|
b)|------1---1-------1---1-------1---1-------1---1----------|
g)|----0---0-------0---0-------0---0-------0---0------------|         1x
d)|---------------------------------------------------------|
a)|--3-----------0------------------------------------------|
e)|--------------------------3-----------1------------------|

GUITAR 2
e)|--3------------|
b)|----1-0---0-1--|
g)|--------0------|      2x
d)|---------------|
a)|--3------------|
e)|---------------|



Write a song with me,
Play guitar for me,
Help me sing the right notes,
Paint a sky for me,
Draw the line with me.
When I go,
You'll try to stop me,
Next time you pass me by.


Am7                       G6
Trying too hard to find a quick fix solution,
Am7                           Fmaj7
I close my eyes and tell you tonight.


C
Fly with me,
        Am7
Lift me up to my feet,
     G6                          Fmaj7
Set me free from this skin I've been too long in.
        C
Will you fly with me,
          Am7
Drive me somewhere where we
    G6
can be something, have something
Fmaj7
more than a dream,
          Dm
I thought up in my sleep
G
Next time you pass me by.


GUITAR 1
e)|---------------------------------------------------------|
b)|------1---1-------1---1-------1---1-------1---1----------|
g)|----0---0-------0---0-------0---0-------0---0------------|         2x
d)|---------------------------------------------------------|
a)|--3-----------0------------------------------------------|
e)|--------------------------3-----------1------------------|

GUITAR 2
e)|--3------------|
b)|----1-0---0-1--|
g)|--------0------|      4x
d)|---------------|
a)|--3------------|
e)|---------------|

Picking oranges,
In New Zealand,
Grow pear trees on our front lawn,
Making clay pots,
Just like that film we watched,
Is it real?
I don't know,
Don't believe I can't see everday waste away,
In front of me,
Hoping for more.

Fly with me,
Lift me up to my feet,
Set me free from this skin I've been too long in.
Will you fly with me,
Drive me somewhere,
Where we can be something,
Have something more than a dream,
I thought up in my sleep
Next time you pass me..


Fmaj7     Am7                   C
By myself I could do anything,
                         G6
I'd rather share it with you,
Fmaj7
I won't hide,
     Am7                        C
I'll swallow my pride tonight,
                 G6
I'll decide to tell you to



Fly with me,
Lift me up to my feet,
Set me free from this skin I've been too long in.
Will you fly with me,
Drive me somewhere,
Where we can be something,
Have something more than a dream,
Will you fly with me,
Lift me up to my feet,
Set me free from this skin I've been too long in.
Will you fly with me,
Drive me somewhere,
Where we can be something,
Have something more than a dream,
I thought up in my sleep
Next time you pass me by.
Show more