• Song:

    Dreamland Dub

  • Artist:

    Lee Scratch Perry

  • Album:

    Scratch Attack!

sponsored links
LEE SCRATCH PERRY & THE UPSETTERS - DREAMLAND DUB
ALBUM: BLACKBOARD JUNGLE DUB (1973)
BASSIST: ASTON "FAMILY MAN" BARRETT

VERSE

E -------------------5-5------5-----5---3-3-----3------3------------------|
A --5-5-----5-----5-------7-4---7-4---------5-2----5-2----5-5-----5-----5-|
D ------7-4---7-4---------------------------------------------7-4---7-4---|
G ------------------------------------------------------------------------|


E -------------------5-5------5-----5---3-3-----3------3------------------|
A --5-5-----5-----5-------7-4---7-4---------5-2----5-2----5-5-----5-----5-|
D ------7-4---7-4---------------------------------------------7-4---7-4---|
G ------------------------------------------------------------------------|


Calling the meek and the humble, welcome to the blackboard jungle, so don't you fumble, 
be humble!

JAH WOBBLE IS GOD!!!
Show more
sponsored links
sponsored links