sponsored links
Artist: Leeland
Title: Follow You (feat. Brandon Heath)
Tuning: Eadgbe(Standard)

Here are the chord variations used throughout this song:
    A (x02220@1) Asus4 (x02230@1)Bm7 (x20202@1) D/F# (200232@1) D (xx0232@1)  Em (022000@1)   Ge|--0-----0-----0-----0-----2-----3-----3--| (320003@1)B|--2-----3-----3-----3-----3-----0-----0--|

Play the following D chord pattern:
e|-2-0-2-------2---0-2-----------------------------------| \                 
B|-3-3-3-------3---3-3-----------------------------------|  \               
G|-2-2-2-------2---2-2-----------------------------------|   \             
D|-0-0-0-------0---0-0-----------------------------------|    \         
A|-x-x-x-------x---x-x-----------------------------------|     \  
E|-x-x-x-------x---x-x-----------------------------------|      \       
Guitar 2 (optional piano melody):                                2x
e|-------------0-----------------------0-------3---2-----|      /
B|-----3---------------2-------3-------------------------|     /   
G|-------------------------------------------------------|    /      
D|-------------------------------------------------------|   /    
A|-------------------------------------------------------|  /     
E|-------------------------------------------------------| /       

Verse 1:
    DYou (xx0232@1)live among the least of these
    Asus4The (x02230@1)weary and the weak
    Bm7 (x20202@1)                     GAnd (320003@1)it would be a tragedy for me to turn away
DAll (xx0232@1)my needs you have supplied.
     Asus4 (x02230@1)        AWhen (x02220@1)I was dead you gave me life
Bm7 (x20202@1)                           GHow (320003@1)could I not give it away so freely?

Asus4    D
And I'll follow you into the homes of the broken
Asus4 (x02230@1)             AFollow (x02220@1)you into the world.
Em (022000@1)                   Bm (x24432@1)         GMeet (320003@1)the needs for the poor and the needy God
DFollow (xx0232@1)you into the World

Verse 2:
DUse (xx0232@1)my hands, use my feet
To make your kingdom come
Bm7To (x20202@1)the corners of the earth
GUntil (320003@1)your work is done
       D'Cause (xx0232@1)Faith without works is dead
    Asus4And (x02230@1)on the cross your blood was shed
   Bm7 (x20202@1)                            GSo (320003@1)how could we not give it away so freely?

(Chorus x2)

  G (320003@1)         D/F#I (200232@1)give all myself
  G (320003@1)         D/F#I (200232@1)give all myself
  G (320003@1)         D/F# (200232@1)    Asus4 (x02230@1) AI (x02220@1)give all myself... to you.

      G (320003@1)         D/F#And (200232@1)I give all myself
       G (320003@1)        D/F#Yes, (200232@1)I give all myself
      G (320003@1)         D/F# (200232@1)    Asus4 (x02230@1) AAnd (x02220@1)I give all myself... to you.

(Chorus x2)

Hope you enjoyed it. Please let me know if you have any questions.

Show more
sponsored links
sponsored links