Left Alone
Lonely Starts and Broken Hearts
Another Feeling


Intro/Verse:
-----------2-4-2------------------------|
-----0-2-4------420---------------------|
---2--------------------55-------44-----| x3
--------------------3-----33-2-----22---|


-----------2-4-742----------------------|
-----0-2-4--------4---------------------|
---2--------------------55-------44-----| x1
--------------------3-----33-2-----22---|


Chorus:
---------------------------------------------------------------------|
---0-0-0-0-0-0-0-0---------------------------------------------------|
-------------------0-0-0-0-0-0-0-0-3-3-3-3-3-3-3-3-------------------| x2
---------------------------------------------------3-3-3-3-3-3-3-3---|
Show more