Left Alone
Dead American Radio
Every Night

Intro/Chorus:
---------------------------------------------------------------------|
---------------------------7-5-4-----------4---4---------------------|
-----------------3-5-5-5-5-------5/2-2-2-2---2---2/3-3-3-3-5-3-2-----| x2
---3-3-3-3-3-3-3-------------------------------------------------3---|

Verse:
-------------------------------------------------------|
-------------------------------------------------------|
-------------------5---------------2---------------3---| x2
---3---------------------------------------------------|
Show more