• Song:

    Bye

  • Artist:

    Lefty

  • Album:

    4 3 2 1

"bye" by Lefty
from 4-3-2-1 album
Tabbed by Chriss (weezer04@hotmail.com)

Standard Tuning

What I think the intro/verse is, not exactly sure.....

e|*--0---3---2---0------*|
B|*--1---3---3---1------*|
G|*--0---0---2---2------*|
D|*---------------------*|
A|*---------------------*|
E|*---------------------*|


Chorus

e|*-----------------------*|
B|*-----------------------*|
G|*--5---7---10-----------*|
D|*--5---7---10---6---5---*|
A|*--3---5----8---6---5---*|
E|*---------------4---3---*|

you can figure out the rythm yourself, it's not that hard

Bridge

e|*----------*|
B|*----------*|
G|*--2-------*|
D|*--4---2---*|
A|*--4---4---*|
E|*------4---*|

again you can figure out the rythm

Ending

e|------------------|
B|------------------|
G|------------------|
D|--4---3---2---1---|
A|--6---5---4---3---|
E|--6---5---4---3---|
Show more