• Song:

    Honey Youre Too Much

  • Artist:

    Legendary Tiger Man

ARTIST:LEGENDARY TIGER MAN
MUSIC:HONEY,YOU´RE TOO MUCH

Riff 1
E-7-7-7-7-7-7-7-7------------5-5-5-5-|
A---------------------5-5-5-5--------|
D------------------------------------|
G------------------------------------|

Riff 2
E-7-7-7-7-7-7-7-7---------5-5-5-5-0-0-0-0--------5-5-5-5-|
A-----------------5-5-5-5-----------------5-5-5-5--------|
D--------------------------------------------------------|
G--------------------------------------------------------|

Riff 3
E-7…---|
A------|
D------|
G------|

Riff 1 14X (00:00)
Riff 2  3X (00:55)
Riff 1 10X (01:18)
Riff 2  2X (01:59)
Riff 3 33X (02:13)
Riff 1  4X (02:30)

www.myspace.com/thelegendarytigerman
www.legendarytigerman.com
Show more