• Song:

    Eu Era Um Lobisomem Juvenil

  • Artist:

    Legiao Urbana

  • Album:

    As Quatro Estações

Tom: G
                
Introdução: (Em D Em B  Em D B A E)

Intro:

E|-5-5----7-7-8-7-5--5-5----3---------5-------1-3-1---|
B|-3---3--8----------3---3--1-6-5-3-3---3-5-5-------3-|
G|-2-----------------2--------5-----2-----5---------2-|
D|----------------------------------------------------|
A|----------------------------------------------------|
E|----------------------------------------------------|



E|-5-7-7-8-10-8-----12-------13-13-15-13-15-|
B|---8----------10-----10----15-------------|
G|--------------9---------------------------|
D|------------------------------------------|
A|------------------------------------------|
E|------------------------------------------|


Em        D       Em       B       Em
Luz e sentido e palavra, palavra é
            D          B  A  E 
O que o coração não pensa

A
Ontem faltou água, anteontem faltou luz
        G
Teve torcida gritando quando a luz voltou
     B                                              E   Esus4
Não falo como você fala mas vejo bem o que você me diz
               A
Se o mundo é mesmo parecido com que vejo
             G
Prefiro acreditar no mundo do meu jeito
    B
E você estava esperando voar
              E                      Esus4          G    A
Mas como chegar até às nuvens com os pés no chão

      Em                        D
O que sinto muitas vezes faz sentido
                      Em 
E outras vezes não descubro o motivo
          B                       Em
Que me explica porque é que não consigo
                  D
Ver sentido no que sinto, o que procuro
        B               A            E
O que desejo é o que faz parte do meu mundo

A          G               B            E    Esus4
O arco-íris tem sete cores, e fui juiz supremo
A                G           B                               E   Esus4   G    A
Vai, vem embora e volta, todos têm, todos têm suas próprias razões

Em                       D
Qual foi a semente que você plantou?
          Em                            B
Tudo acontece ao mesmo tempo, nem eu mesmo sei direito
         Em                 D
O que está acontecendo, e daí de hoje em diante
      B     A         E 
Todo dia vai ser o dia mais importante

Base do solo: (C A E  G A E)2x

Solo.
E|--------------------------9-10-12-9-10----|
B|-7-8-10--8-7-8-7-----------------------12-|
G|-----------------9-7-9--------------------|
D|------------------------------------------|
A|------------------------------------------|
E|------------------------------------------|

C          A      E
Se você quiser alguém prá ser só seu
  G               A       E
É só não se esquecer, estarei aqui        (2x)

          Em                 D
Não digo nada, espero o vendaval passar
        Em                      B
Por enquanto eu não sei o que você me falou
       Em                       D
Me fez rir e pensar porque estou tão preocupado
       B           A      E
Por estar tão preocupado assim
Em                     D
Mesmo se eu cantasse todas as canções
Em                  B
Todas as canções, todas as canções
Em                    D         B        A        E
Todas as canções do mundo, sou bicho do mato mas...

Solo.

E|--------------------------7-10-12-9-10----|
B|-7-8-10-8----8-7-----------------------12-|
G|----------11-----9-7-9--------------------|
D|------------------------------------------|
A|------------------------------------------|
E|------------------------------------------|


C          A      E
Se você quiser alguém prá ser só seu
  G               A       E
É só não se esquecer, estarei aqui     (4x)

Solo: C A E  G A E  C A E
                          
G  A  E   C A   E     G A E        C   A  E         G   A E
Ou então não terás jama..is   a  chave   do  meu  co..ração

(C A E  G A E )

Quando a música voltar pra parte lenta, faça esses acordes 
Em pestána E dedilhado, esse é o certo...(Em D Em B  Em D B A E)

Solo do final
E|-3-1-0----5----7-7-8-7-5--5----10---8-7-5-7-3--5----7-7-8-12-5--5------0-1-3---|
B|-1-----3----3--8-------3----3--8------------5----3--8--------3----3--5-------3-|
G|-------2-------------------------------------------------------------5-------2-|
D|-------------------------------------------------------------------------------|
A|-------------------------------------------------------------------------------|
E|-------------------------------------------------------------------------------|
Show more