• Song:

    Shish Taouk

  • Artist:

    Les Cowboys Fringants

  • Album:

    La Grand-Messe Nouvelle...

Shish Taouk Tab by Les Cowboys Fringants


                     Shish Taouk/Les cowboys fringants


------------------------------|4X
------------------------------|
------------------------------|
----0--4---4-2---2-4-2--0-2-0-|
--2---------------------------|
------------------------------|


--------------------------------------------------------------------------------------------|2X
--------------------------------------------------------------------------------------------|
--------------------------------------------------------------------------------------------|
------0-2--4-4--2--0------------------------------------------------------------------------|
--2-2-------------------------0-2-4-4-2-0---------------------0-2-2-0-2---------0-2--4-2-0--|
-------------------------2-2------------------------0-0---4-------------0-0-4---------------|

------------------------------------------------------------------------------------------------------------------|
------------------------------------------------------------------------------------------------------------------|
------------------------------------------------------------------------------------------------------------------|
-------0--4--2--2-2-4-2-0----------------2-0----0-0-2-0-0--------------0--4--2---2-2-4-2-0------------------------|
--2-4---------------------4--2-0----0--4--------------------4-4----2-4---------------------4-2-0------------------|
------------------------------------------------------------------------------------------------------------------|

--------------------------------------------------------------------------------------------|2X
--------------------------------------------------------------------------------------------|
--------------------------------------------------------------------------------------------|
------0-2--4-4--2--0------------------------------------------------------------------------|
--2-2-------------------------0-2-4-4-2-0---------------------0-2-2-0-2---------0-2--4-2-0--|
-------------------------2-2------------------------0-0---4-------------0-0-4---------------|

------------------------------|2X
------------------------------|
------------------------------|
----0--4---4-2---2-4-2--0-2-0-|
--2---------------------------|
------------------------------|

------------------------------------------------------------------------------------------------------------------|
------------------------------------------------------------------------------------------------------------------|
------------------------------------------------------------------------------------------------------------------|
-------0--4--2--2-2-4-2-0----------------2-0----0-0-2-0-0--------------0--4--2---2-2-4-2-0------------------------|
--2-4---------------------4--2-0----0--4--------------------4-4----2-4---------------------4-2-0------------------|
------------------------------------------------------------------------------------------------------------------|

--------------------------------------------------------------------------------------------|2X
--------------------------------------------------------------------------------------------|
--------------------------------------------------------------------------------------------|
------0-2--4-4--2--0------------------------------------------------------------------------|
--2-2-------------------------0-2-4-4-2-0---------------------0-2-2-0-2---------0-2--4-2-0--|
-------------------------2-2------------------------0-0---4-------------0-0-4---------------|
Show more