• Song:

    Halfway Gone

  • Artist:

    Lifehouse

  • Album:

    Halfway Gone

sponsored links
Tabbed by:Dylan Norquest


Chords used:
e | ------------------------------------------------------------------------- | 
B | ------------------------------------------------------------------------- | 
G | ---6----------------(b9)-------1------------------------------------------- | 
D | ---6-----7-----(b9)---(b9)--Or---2------------------------------------------- | 
A | ---4-----7-----(b9)---7--------2------------------------------------------- | 
E | ---------5-----7-------------0------------------------------------------- | 
    C#     A     B    E

Tuning:Standard

Intro: Fade in playing a B
Verse 1:
You were always hard to hold
C#              A
So letting go aint easy
E          B
Im hanging on but growing cold
C#                A
While my mind is leaving
E        B

Pre Chorus:
Talk, talk is cheap
A             B
Give me a word you can keep
           C#          B
Chorus:
Cause youre halfway gone and Im on way
C#                          A
And Im feeling, feelin feelin this way
E                         B
Cause Im halfway in but dont take too long
C#                          A
Cause Im halfway gone, Im halfway gone
            E                B
Verse 2:
You got one foot out the door
C#                A
And choking on the other
E            B
Always think theres something more
C#                 A
Its just around the corner
E            B

Pre Chorus:
Talk, talk is cheap
A             B
Give me a word you can keep
           C#          B

Chorus:
Cause youre halfway gone and Im on way
C#                          A
And Im feeling, feelin feelin this way
E                         B
Cause Im halfway in but dont take too long
C#                          A
Cause Im halfway gone, Im halfway gone
            E                B


If you want me out, then Im on my way
C#                         A
And Im feelin, feelin feelin this way
         E               B
Cause youre halfway in, but dont take too long
C#                              A
Cause Im halfway gone, Im halfway gone (Woah oh woah oh)
            E                 B         C#             A
Im halfway gone, Im halfway gone (Woah oh woah oh)
      E                B           C#             A
Now Im halfway gone, Im halfway gone
          E                B
Bridge:
Dont take too long
C#                A
Dont take too long
E                 B
Cause Im on my way
C#                A
If you take too long
     E              B
Chorus:
Cause youre halfway gone and Im on way
C#                          A
And Im feeling, feelin feelin this way
E                         B
Cause Im halfway in but dont take too long
C#                          A
Cause Im halfway gone, Im halfway gone
            E                B


If you want me out, then Im on my way
         C#                  A
And Im feelin , feelin feelin this way
          E              B
Cause youre halfway in, but dont take too long
            C#                  A
Cause Im halfway gone, Im halfway gone (Woah oh woah oh)
            E                 B         C#            A
Cause Im halfway gone, and Im halfway gone (Woah oh woah oh)
            E                    B         C#             A
Cause Im halfway gone, yeah Im halfway gone
            E                      B
Fades out on B

Riff used on "Woah oh woah oh"


e | --------------------------------------------------------------------------- | 
B | --------------------------------------------------------------------------- | 
G | ----(b9)8-6--(b9)8-6----------------------------------------------------------- | 
D | --------------------------------------------------------------------------- | 
A | --------------------------------------------------------------------------- | 
E | --------------------------------------------------------------------------- | 
(Something like that)
Show more
sponsored links
sponsored links