• Song:

    A 7days Wonder

  • Artist:

    Ling Tosite Sigure

----------------------------------------------------------------------------------     
            a 7days wonder - Ling Tosite Sigure (Ring Toshite Shigure)
----------------------------------------------------------------------------------

Band's Website: http://www.sigure.jp/

Tabbed by: Keko94

\ Slide down
/ Slide up
h Hammer on
Standard Tuning (EADG)

This is the very first tab I've ever made, so I'd appreciate any comments on it.
Be sure to listen to the song while using this TAB, to get the times correctly.

Intro:

G|----8-6h8-8/11------------------|
D|-6-------------9-8\-------------|
A|---------------------4-4-6-6-6--| x4
E|--------------------------------|

G|-----------8-6h8--8/11------------------------------|
D|6666666--6------------9-8\--------------------------|
A|-------------------------------4444444--6-6-6-------|
E|----------------------------------------------------|

(Voice starts)

G|---8-6-8-8/11-------------------|
D|-6-------------9-8\-------------|
A|--------------------4-4-6-6-6---| x4
E|--------------------------------|
B|--------------------------------|

(Stop at 0:33, Don't play until 0:36)

G|---8-6-8-8/11-------------------|
D|-6------------9-8\--------------|
A|--------------------4-4-6-6-6---| x3
E|--------------------------------|
B|--------------------------------|

G|--------------------------------|
D|-6--------------6---------------|
A|----7--9-----------7--9---------| 
E|--------------------------------|
B|--------------------------------|

G|----------11-10-9---------------|
D|-13-11--------------------------|
A|-------11-----------------------| x4
E|--------------------------------|
B|--------------------------------|

G|-------------------------|
D|---6---------------------|
A|-----6-6-7---------------| x7
E|-4-----------------------|

(Stop at 1:14, resume at 1:30 aprox)

G|--------------------------|
D|--------------------------|
A|-11/----4-4-6-6-6---------|
E|--------------------------|

G|--------------------------------|
D|-6--------------6---------------|
A|----7--9-----------7--9---------| x3
E|--------------------------------|

G|---------11-10-9----------11-10-9-|
D|-13-11-------------13-11----------|
E|------11-----------------11-------|
A|----------------------------------|

G|-------------------------|
D|---6---------------------|
A|-----6-6-7---------------| x8
E|-4-----------------------|

G|-----------8-6h8--8/11-----------------8-6h8--8/11------|
D|-6666666--6------------9-8\--6666666--6------------9-8\-|
A|--------------------------------------------------------|
E|--------------------------------------------------------|

(Drums fill)

G|-------------------------------|
D|66666666666666-----------------|
A|---------------4444444-6666666-|
E|-------------------------------|   x2

G|-------------------------------|
D|-6666666666666666666666666666--|
A|-------------------------------|
E|-------------------------------|

G|------------------------|
D|------------------------|
A|-4-4-5-5-5--4-4-44-5----|
E|------------------------|

G|------------------------|
D|-6----9-8-----6-----9-8-|
A|---7-------------7------|  x2
E|------------------------|

G|-------------------------------|
D|-------------666-88-999--------|
A|-666-5-4444--------------------|   x8
E|-------------------------------|

(Stop, resume when the male voice starts, at 3:30 aprox)

G|-------------------------------|
D|-------------------------------|
A|---/7--------------------------| x4
E|-4----7-6----------------------|

G|-------------------------------|
D|-------------------------------|
A|-----7777----------------------|  x8
E|-4444------7777-6666-----------|

G|---8-6h8-8/11------------------|
D|-6-------------9-8/------------|
A|--------------------4-4-6-6-6--|  x3
E|-------------------------------|

G|----------8-6h8-8/11-----------|
D|-6666666-6-------------9-8\----|
A|-------------------------------|
E|-------------------------------|
B|-------------------------------|


G|-------------------------------|
D|-------------------------------|
A|-666666666666-66666------------|
E|-------------------------------|

===============================================================================
Show more