#----------------------------------PLEASE NOTE--------------------------------#
#This file is the author's own work and represents their interpretation of the#
#song. You may only use this file for private study, scholarship, or research.#
#-----------------------------------------------------------------------------#
#-- File created with Instab - http://www.pconline.com/~smcarey/instab.html --#
#-----------------------------------------------------------------------------#

Author/Artist: Live
Title: Lightning Crashes
Transcribed by: John

/ = slide up
\ = slide down
b = bend
r = release bend
v = strum down
^ = strum up

Hint: You can find the whole chords for the song
at the bottom.  E Bsus2 G

Standard Tuning (EADGBe)


--------|---------------------------------2-----2----------2-----2---------|--|
--------|---------------------------------x---x-x------x-x-x---x-x---------|--|
--------|-4---x-4---4-x-x-4---x-4---------3---x-3------x-x-3---x-3---------|--|
--------|-6---x-6---6-x-x-x---x-4---4-x-x-4---x-4---x--x-x-4---x-4---4-x-x-|--|
--------|-7---x-7---7-x-x-2---x-x---2-x-x-4---x-x---x--x-x-4---x-x---4-x-x-|--|
--------|-0-----0---------2---x-2---2-x-x-2-----2----------2-----2---2-x-x-|--|
  Verse   v   v ^   v v ^ v   v ^   v v ^ v   v ^   v  v ^ v   v ^

--------|----------------------------------------------|--|-------------------|
--------|----------------------------------------------|--|-------------------|
--------|-------4----------4-----------------------3---|--|-------------------|
--------|-6--6--6--x-x-----x-----------------------4---|3x|-------------------|
--------|-7--7--7--x-x-2---2--2-2-4---4--4--4---4--4---|--|-------------------|
--------|-0--0--0--x-x-2---2--2-2-2---2--2--2---2--2---|--|-------------------|
  Chorus                                              m

--------|---------------------------------------|---------|-------------------|
--------|---------------------------------------|---------|-------------------|
--------|-----4--------------3---x-3---3--3-x-x-|---------|-------------------|
--------|-6---6--x-x---------4---x-4---4--4-x-x-|---------|-------------------|
--------|-7---7--x-x-2---2---4---x-x---x--x-x-x-|---------|-------------------|
--------|-0---0--x-x-2---2---2---x-2---2--2-x-x-|---------|-------------------|
  Chorus End                 v   v ^   ^  v v ^    Verse

------|-------------2------|--|-----------------------2---2------2---2-------|
------|-------------x------|--|-----------------------x---x--x-x-x---x--x-x--|
------|-4-----4-----3------|--|-4---4--x-x-4---4--x-x-3---3--x-x-3---3--x-x--|
------|-6-----x-----4------|2x|-6---6--x-x-x---x--x-x-4---4--x-x-4---4--x-x--|
------|-7-----2-----4------|--|-7---7--x-x-2---2--x-x-4---4--x-x-4---4--x-x--|
------|-0-----2-----2------|--|-0---0--x-x-2---2--x-x-2---2--x-x-2---2--x-x--|
  2nd chorus riffs

---------|--|--------------------2h4p2-------|--|-0---0-0-0-0-0-2----|--|--|--|
---------|--|--------------------------2-----|--|-5---5-5-5-5-5-x----|--|--|--|
---------|--|-----1/3--1-----------------3---|--|-4---4-4-4-4-4-3----|--|--|--|
---------|2x|-6-----------4----------------4-|3x|-6---6-6-6-6-6-4----|--|2x|--|
---------|--|-6--------------6---------------|--|-7---7-7-7-7-7-4----|--|--|--|
---------|--|-4------------------------------|--|--------------------|--|--|--|
  Bridge      v   v    ^  v  v   v     ^ v ^      v   ^ v ^ v ^ v

---------|------------------------------------------|-0----2----2----------|--|
---------|------------------------------------------|-5----2----x----------|--|
---------|------------------------------------------|-4----4----3----------|--|
---------|------------------------------------------|-6----4----4----------|--|
---------|------------------------------------------|-7----x----4----------|--|
---------|------------------------------------------|-0----2----2----------|--|
           3rd chorus same as 2nd half of 2nd chorus and just strum chords

---------|-------2------2------------|----------------------------------------|
---------|-------2------x------------|----------------------------------------|
---------|-------4------3------------|----------------------------------------|
---------|-6-----4------4------------|----------------------------------------|
---------|-7-----x------4------------|----------------------------------------|
---------|-0-----2------2------------|----------------------------------------|
           Slowly strum down
Show more