• Song:

    Monsters Keep Me Company

  • Artist:

    Lordi

  • Album:

    Deadache

sponsored links
Song: Monsters Keep Me Company
Band: Lordi
Tabbed by: unspeakable.elvis@gmail.com
Corrected: 26/10/10

Legend:
h       hammer on
p       pull off
/       slide up to note
\       slide down from note
16\12   slide from 16th fret to 12th fret
.       staccato note

Standard Tuning


Intro
~~~~~

Staccato notes throughout intro + verse
|-----------------|-----------------|-----------------|-----------------|
|-----------------|-----------------|-----------------|-----------------|
|-.---.---.---.---|-.---.---.---.---|-.---.---.---.---|-.---.---.---.---|
|-5---5---5---5---|-6---6---6---6---|-5---5---5---5---|-6---6---6---6---|


|-----------------|-----------------|-----------------|-----------------|
|-----------------|-----------------|-----------------|-----------------|
|-.---.---.---.---|-.---.---.---.---|-.---.---.---.---|-----------------|
|-5---5---5---5---|-6---6---6---6---|-5---5---5---5---|-6---------------|



Verse
~~~~~
    "if the sun comes up tomorrow..."
|-----------------|-----------------|-----------------|-----------------|
|-----------------|-----------------|-----------------|-----------------|
|-.---.---.---.---|-.---.---.---.---|-.---.---.---.---|-.---.---.---.---|
|-5---5---5---5---|-4---4---4---4---|-5---5---5---5---|-4---4---4---4---|

     "the moon is still shining..."
|-----------------|-----------------|-----------------|-----------------|
|-----------------|-.---.---.---.---|-----------------|-----------------|
|-.---.---.---.---|-5---5---5---5---|-.---.---.---.---|-.---.---.---.---|
|-1---1---1---1---|-----------------|-1---1---3---3---|-4---4---4---4---|

    "i'm drowning in hate and sorrow..."
|-----------------|-----------------|-----------------|-----------------|
|-----------------|-----------------|-----------------|-----------------|
|-.---.---.---.---|-.---.---.---.---|-.---.---.---.---|-.---.---.---.---|
|-5---5---5---5---|-4---4---4---4---|-5---5---5---5---|-4---4---4---4---|

     "there still might be something for me..."
|-----------------|-----------------|-----------------|-----------------|
|-----------------|-.---.---.---.---|-----------------|-------------.---|
|-.---.---.---.---|-5---5---5---5---|-.---.---.---.---|-.---.---.---7---|
|-1---1---1---1---|-----------------|-1---1---3---3---|-4---4---0-------|



Bridge
~~~~~~

|-----------------|-----------------|-----------------|-----------------|
|-----------------|-----------------|-----------------|-----------------|
|-----------------|-0-0-0-0-0-0-0-0-|-----------------|-------------7\--|
|-1-1-1-1-1-1-1-1-|-----------------|-1-1-1-1-1-1-1-1-|-3---------------|



Chorus
~~~~~~
 "my monsters keep my company..."
|-----------------|-----------------|-----------------|-----------------|
|-----------------|-----------------|-----------------|-----------------|
|-0-0-0-0-0-0-----|---------5-5/7-7-|-0-0-0-0-0-0-----|---------5-5/7-7-|
|-------------3-3-|-1-1-1-0---------|-------------3-3-|-1-1-1-0---------|

                                    "until they will set me free..."
|-----------------|-----------------|-----------------|-----------------|
|-----------------|-----------------|-----------------|-----------------|
|-0-0-0-0-0-0-----|---------5-5-7-7\|-1-1-1-1-3-3-3-3-|-----------------|
|-------------3-3-|-1-1-1-0---------|-----------------|-3---------------|


 Bass fill before 2nd Intro:
|-----------------|
|-----------------|
|-----------5h6p5\|
|-----------------|

 Back to Intro, after which:
         ~~~~~


Second verse
~~~~~~~~~~~~
    "I can't believe what I'm thinking..."
|-----------------|-----------------|-----------------|-----------------|
|-----------------|-----------------|-----------------|-----------------|
|-.---.---.---.---|-.---.---.---.---|-.---.---.---.---|-.---.---.---.---|
|-5---5---5---5---|-4---4---4---4---|-5---5---5---5---|-4---4---4---4---|


|-----------------|-----------------|-----------------|-----------------|
|-----------------|-.---.---.---.---|-----------------|-----------------|
|-.---.---.---.---|-5---5---5---5---|-.---.---.---.---|-.---.---.---7\--|
|-1---1---1---1---|-----------------|-1---1---3---3---|-4---4---0-------|

  "I never wanted to be your hero..."
|-----------------|-----------------|-----------------|-----------------|
|-----------------|-----------------|-----------------|-----------------|
|-.---.---.---.---|-.---.---.---.---|-.---.---.---.---|-.---.---.---.---|
|-5---5---5---5---|-4---4---4---4---|-5---5---5---5---|-4---4---4---4---|


|-----------------|-----------------|-----------------|-----------------|
|-----------------|-.---.---.---.---|-----------------|-----------------|
|-.---.---.---.---|-5---5---5---5---|-.---.---.---.---|-.---.---.---7\--|
|-1---1---1---1---|-----------------|-1---1---3---3---|-4---4---0-------|


 On to Bridge, then Chorus; after which:
       ~~~~~~       ~~~~~~


Solo:
~~~~~
                   "someday I'll come back again..."
|-----------------|-----------------|-----------------|-----------------|
|-----------------|-----------------|-----------------|-----------------|
|-----------------|-----------------|-----------------|-----------------| play x2
|-3-------3-3-----|-3---------3-3---|-3--------3-3----|-2-------2-2-----|


|-----------------|-----------------|-----------------|-----------------|
|-----------------|-----------------|-----------------|-----------------|
|-5-5-5-5-3-3-3-3-|-1-1-1-1-1-1/3-3-|-5-5-5-5-3-3-3-3-|-1-1-1-1-----0-0-|
|-----------------|-----------------|-----------------|---------3-3-----|


|-----------------|-----------------|
|-----------------|-----------------|
|-----------------|-----------------|
|-3-3-3-3-3-3-3-3-|-4-4-4-4-4-4-44-4|

 Then Chorus x2, after which:
      ~~~~~~


Outro
~~~~~

|------------------------|-------------------|
|------------------------|-------------------|
|-0-0---0-0---1-1---1-1--|-------------------|
|------------------------|-0--0--0--0--0--0--|

Repeat outro with some variation until...

End.
Show more
sponsored links
sponsored links