• Song:

    Bambora Mardito Boi

  • Artist:

    Los Canteros

Riff 1:
E|-------------------------------------|
B|----1-------1--------1---------------|
G|--2-------0--------0-----------------|
D|-------------------------3-2-0-------|
A|0-----0-3------3-2-------------3-2-0-|
E|-------------------------------------|

Riff 2:
E|-------------------------------------|
B|----1-------1--------1---------------|
G|--2-------0--------0-----------------|
D|-------------------------------------|
A|0-----0-3------3-2------2-3-2-3-2-0--|
E|-------------------------------------|

Riff 3:                                 Am 
E|------------------------------------------0---0---|
B|----1-------1--------1-------------------1----1---|
G|--2-------0--------0--------------------2-----2---|
D|---------------------------------------2------2---|
A|0-----0-3------3-2------2-3-2-3-2-0---0-------0---|
E|-------------------------------------------------|


(Riff 1)
Eu meu carro de boi
Cheirando o p? da estrada

(Riff 2)
Sozinho cansado
Esperando a minha amada

(Riff 1)
S? anda n?o chega
Que caminho desgramado

(Riff 3)
Qu?essa demora eu morro de amor
Cruis-credo, avemaria, am?m

                         E
N?o vejo a hora de chegar
                                               Am
Te abra?ar, te beijar, seu cheirinho de jardim
                       E
Agarradinho sou seu par
                                                   Am
No nheco nheco checo chego vou chegando pra te amar

E|-----------|
B|-----------|
G|-----------|
D|3-2-0------|
A|------3-2-0|
E|-----------|


Uh

(Riff 1)
Vai boi, vai boi, vai boi, bora mardito boi

(Riff 2)
Qu?essa demora eu morro de amor
A solid?o n?o ag?ento n?o

(Riff 1)
S? anda n?o chega que caminho desgramado

(Riff 3)
Qu?essa demora eu moro de amor
Cruis-credo, avemaria, am?m

                         E
N?o vejo a hora de chegar
                                              Am
Te abra?ar, te beijar, seu cheirinho de jardim
                       E
Agarradinho sou seu par
                                                   Am
No nheco nheco checo chego vou chegando pra te amar

E|-----------|
B|-----------|
G|-----------|
D|3-2-0------|
A|------3-2-0|
E|-----------|


Uh!
Show more