• Song:

    Score Short Montage

  • Artist:

    Lyle Workman

Band: Lyle Workman
Song: Score (Short Montage) - The song from the 40 Year Old Virgin.
Tabbed by Lynn (Airbourne775)
Tabbed Februrary 6, 2010



Note: I believe this song is half step down. 
Not sure..but it's not standard. 
If you played this in standard without the song it'll sound like it, but 
if you play with the song it won't.


E|------------------------------------------------------|
B|-9-9-9-9-9-9-9-9---10--10--10--10--10--10--10--10-----|  
G|-9-9-9-9-9-9-9-9---7---7---7---7---7---7---7---7------|
D|------------------------------------------------------|
A|------------------------------------------------------|
E|------------------------------------------------------|


E|------------------------------------------------------|
B|-10--10--10--10--10--10--10--10---8-8-8-8---7-7-7-7---|  
G|-7---7---7---7---7---7---7---7----5-5-5-5---7-7-7-7---|
D|------------------------------------------------------|
A|------------------------------------------------------|
E|------------------------------------------------------|


E-C-G-D-A
  5 0
  3 5
    3

The C and G are played the way I have the numbers under the chords 
so instead of the normal chord it will be a power chord..

C   G

0   0
0   0
5   0
5   5
3   5 
0   3


Anyays I'm pretty sure thats how it goes...

Song link: http://www.mp3sale.ru/track.php?ms_trackid=488125
Show more