• Song:

    Congenital Tumour Constituted By Embryonic Tissues And Foetal Residues

  • Artist:

    Lymphatic Phlegm

Lymphatic Phlegm
Pathologist's Cadaveric Fleshfeast
Congenital Tumour Constituted By Embryonic Tissues And Foetal Residues

Copyright (c)  Bizarre Leprous Production 2002
Version 1.0 - 23.5.06

Transcribed By: Yaniv Dekel
Email:          lickywebster@yahoo.com


.  - palm mute           /  - slide up to
\  - slide down to       ~  - vibrato
h  - hammer on           b  - Bend
p  - pull off            Suffixes for bend
t  - tap                 f  - full bend    h - half bend
ph - pinched harmonic    q  - quarter bend t - tap bend
*  - see comment         ^  - Hold bend    r release bend
x  - Stuccatto           ~  - vibrato bend
,  - slight palm mute    () - ghost note, sustained note
"  - tremolo note        <> - Trill

Tuning E A D G B E

Riff A1 x2               1       2
|------------------------|-------|-------------|
|------------------------|-------|-------------|
|------------------------|-------|-------------|
|------------------------|-----7-|-------------|
|-5----4-5----4-5----4-2-|-7-8-5-|---------5p0-|
|-3----2-3----2-3----2-0-|-5-6---|-5p0-6p0-----|

Riff A2 x2
|-----------------------------------------------|
|-----------------------------------------------|
|-----------------------------------------------|
|-----------------------------------------------|
|-555555-44-555555-44-555555-44-5---------5p0---|
|-333333-22-333333-22-333333-22-3-5p0-6p0-------|

Riff B x6                              1,3,5       2,4,6
|--------------------------------------|-----------|------------|
|--------------------------------------|-----------|------------|
|--------------------------------------|-----------|------------|
|--------------------------------------|-----------|------------|
|-555555------------------555555-----5-|-3h5p3-6-5-|-3h6p5------|
|-333333-2/3-5--3h5p3-6-5-333333-2/3---|-----------|-------6-5--|

Riff A1 x2
Riff A2 x2

Bass passage

Riff B x4

Riff C x8
|------------------------------|
|------------------------------|
|------------------------------|
|-----------5p4---7p4-7p4p0----|
|-55555-3h5--------------------|
|-33333------------------------|

Bass fill

End with
|------|
|------|
|------|
|-5----|
|-5----|
|-3----|

END
Show more