• Song:

    A Farewell To Autumn

  • Artist:

    Lyndsay Diaries

  • Album:

    remember the memories

Lyndsay Diaries - A Farewell to Autumn
By:Andrew Mcshan(Guitarguyx182@aol.com)

Capo 6

Verse
e|--------------------------0-----------2-0--------------------------------|
B|-----------------------3----3------3------3------------------------------|
G|---2-------2---------2--------2--2---------------------------------------|
D|-0---0-4-0---0-4--0------------------------------------------------------|
A|-------------------------------------------------------------------------|
E|-------------------------------------------------------------------------|
Chorus
e|-3-----------------------------------------------------------------------|
B|-3-------1---------------------------------------------------------------|
G|-0-------0---------------------------------------------------------------|
D|-0-------2---------------------------------------------------------------|
A|-2-------3---------------------------------------------------------------|
E|-3-----------------------------------------------------------------------|
Bridge
e|-------------------------------------------------------------------------|
B|------0------0------1------1---------------0-0-0--1-1-1------------------|
G|---0------0-------0-----0------------------0-0-0--0-0-0------------------|
D|-2------2------2------2----------x2--------2-2-2--2-2-2------------------|
A|-------------------------------------------------------------------------|
E|-------------------------------------------------------------------------|
Show more