• Song:

    Dixie

  • Artist:

    Lynyrd Skynyrd

  • Album:

    Freebird: The Movie

Lynyrd skynyrd
Dixie tab

For this song you need to use a slide but it still sounds good without it.

If there are any problems give me a message.
http://profile.ultimate-guitar.com/JI-HALL/

S = slide
~ = vibrate

|------------------------------------------------------|
|-3----------------------------------------------------|
|---4-----------------------------------7s9-9~--7s9-9~-|
|-----5-5~?-5s7-7s9-9s12-12~?-9s12-9-9~----------------|
|------------------------------------------------------|
|------------------------------------------------------|

|------------------------------------------------------|
|------------------------------------------------------|
|-9s11-11s2-12s14?14s17-16~~---------------------------|
|-----------------------------17-16-17-17s16s17~~~~----|
|------------------------------------------------------|
|------------------------------------------------------|

|------------------------------------------------------|
|------------------------------------------------------|
|------------------------------------------------------|
|-12-11-12-12s11s12-----7-7~-7s9-7s9--5-5~~~~~~--------|
|------------------------------------------------------|
|------------------------------------------------------|

Have fun?
Show more