sponsored links
verse, chorus, verse, bridge, chorus, till end

verse
G|----------------------------------------------|
D|0-0-------0-0---------3-3--------3-3----------|
A|---00-3-0-3----00-3-0-3-----0-3-0-3--00-3-0-3-|
E|----------------------------------------------|

chorus
G|0-----------------------|
D|--------0-2-3-2-0--2-0--|
A|---0-1-3---------3----3-|
E|-3----------------------|

bridge
G|-----------------------------|
D|----------------------0------|
A|1-1-1-1-1-1-1-11-3-3-3-0-0-0-|
E|-----------------------------|


G|--------------------------------|
D|----------------------0---------|
A|1-1-1-1-1-1-1-11-3-3-3-0-0-0-0--|
E|----------------------------3---| x2


G|------------------------------|
D|----------------------0-----0-|
A|1-1-1-1-1-1-1-11-3-3-3-3-3-3--|
E|------------------------------|
Show more
sponsored links
sponsored links