Guitar 1
e|-----------------------------------|
B|-----------------2----4------------|
G|--1----3----4--------------3----1--|
D|-----------------------------------|
A|-----------------1----2------------|
E|--0----2----4--------------2----0--|

   Guitar 2
e|----6-7--9-11-6-----|
B|--9-----------------|
G|--------------------|
D|----4-6--8-9--4-----|
A|--7-----------------|
E|--------------------|

   Guitar 3
e|----6-7--9-11-6------|
B|--9--------------7-7-|
G|---------------------|
D|---------------------|
A|---------------------|
E|---------------------|

    Bass
G|----------------------|
D|----------------------|
A|----------4-6---------|
E|--4--6-7-------6-4----|
Show more